  0
SECTION
  2
HEADER
  9
$ACADVER
  1
AC1006
  9
$EXTMIN
 10
-1.040201
 20
-1.489701
  9
$EXTMAX
 10
1.040193
 20
1.489693
  9
$LTSCALE
 40
0.000394
  9
$PDMODE
 70
    35
  9
$PDSIZE
 40
0.000315
  0
ENDSEC
  0
SECTION
  2
TABLES
  0
TABLE
  2
LTYPE
 70
     9
  0
LTYPE
  2
CONTINUOUS
 70
    64
  3
Solid line
 72
    65
 73
     0
 40
0.000000
  0
LTYPE
  2
DASHED
 70
    64
  3
__ __ __ __ __ __ __ __ __ __ __ __ __ __ __
 72
    65
 73
     2
 40
0.000003
 49
0.000002
 49
-0.000001
  0
LTYPE
  2
HIDDEN
 70
    64
  3
 _ _ _ _ _ _ _ _ _ _ _ _ _ _ _ _ _ _ _ _ _ _
 72
    65
 73
     2
 40
0.000001
 49
0.000001
 49
-0.000000
  0
LTYPE
  2
CENTER
 70
    64
  3
____ _ ____ _ ____ _ ____ _ ____ _ ____ _ ____
 72
    65
 73
     4
 40
0.000008
 49
0.000005
 49
-0.000001
 49
0.000001
 49
-0.000001
  0
LTYPE
  2
PHANTOM
 70
    64
  3
_____ _ _ _____ _ _ _____ _ _ _____ _ _ ____
 72
    65
 73
     6
 40
0.000010
 49
0.000005
 49
-0.000001
 49
0.000001
 49
-0.000001
 49
0.000001
 49
-0.000001
  0
LTYPE
  2
DOT
 70
    64
  3
...............................................
 72
    65
 73
     2
 40
0.000001
 49
0.000000
 49
-0.000001
  0
LTYPE
  2
DASHDOT
 70
    64
  3
__ . __ . __ . __ . __ . __ . __ . __ . __ . __
 72
    65
 73
     4
 40
0.000004
 49
0.000002
 49
-0.000001
 49
0.000000
 49
-0.000001
  0
LTYPE
  2
BORDER
 70
    64
  3
__ __ . __ __ . __ __ . __ __ . __ __ . __ __
 72
    65
 73
     6
 40
0.000007
 49
0.000002
 49
-0.000001
 49
0.000002
 49
-0.000001
 49
0.000000
 49
-0.000001
  0
LTYPE
  2
DIVIDE
 70
    64
  3
__ . . __ . . __ . . __ . . __ . . __ . . __
 72
    65
 73
     6
 40
0.000005
 49
0.000002
 49
-0.000001
 49
0.000000
 49
-0.000001
 49
0.000000
 49
-0.000001
  0
LTYPE
  2
DOTDOT
 70
    64
  3
 . .  . .  . .  . .  . .  . . 
 72
    65
 73
     5
 40
0.000002
 49
-0.000001
 49
0.000000
 49
-0.000001
 49
0.000000
 49
-0.000001
  0
ENDTAB
  0
TABLE
  2
STYLE
 70
     0
  0
ENDTAB
  0
TABLE
  2
LAYER
 70
     3
  0
LAYER
  2
FOREGROUND
 70
    64
 62
     7
  6
CONTINUOUS
  0
LAYER
  2
BACKGROUND
 70
    65
 62
    -7
  6
CONTINUOUS
  0
LAYER
  2
LAYER_1
 70
    64
 62
     7
  6
CONTINUOUS
  0
ENDTAB
  0
ENDSEC
  0
SECTION
  2
ENTITIES
  0
POLYLINE
  8
LAYER_1
 62
    39
  6
CONTINUOUS
 66
     1
 40
0.004390
 41
0.004390
  0
VERTEX
  8
LAYER_1
 62
    39
  6
CONTINUOUS
 10
-1.038004
 20
-1.486504
  0
VERTEX
  8
LAYER_1
 62
    39
  6
CONTINUOUS
 10
-1.038004
 20
-0.687504
  0
VERTEX
  8
LAYER_1
 62
    39
  6
CONTINUOUS
 10
-1.036004
 20
-0.687504
  0
VERTEX
  8
LAYER_1
 62
    39
  6
CONTINUOUS
 10
-1.036004
 20
-1.486504
  0
VERTEX
  8
LAYER_1
 62
    39
  6
CONTINUOUS
 10
-1.038004
 20
-1.486504
  0
VERTEX
  8
LAYER_1
 62
    39
  6
CONTINUOUS
 10
-1.037004
 20
-1.486504
  0
VERTEX
  8
LAYER_1
 62
    39
  6
CONTINUOUS
 10
-1.037004
 20
-0.687504
  0
VERTEX
  8
LAYER_1
 62
    39
  6
CONTINUOUS
 10
-1.037004
 20
-0.686504
  0
VERTEX
  8
LAYER_1
 62
    39
  6
CONTINUOUS
 10
0.766996
 20
-0.686504
  0
VERTEX
  8
LAYER_1
 62
    39
  6
CONTINUOUS
 10
0.766996
 20
-0.688504
  0
VERTEX
  8
LAYER_1
 62
    39
  6
CONTINUOUS
 10
-1.037004
 20
-0.688504
  0
VERTEX
  8
LAYER_1
 62
    39
  6
CONTINUOUS
 10
-1.037004
 20
-0.686504
  0
VERTEX
  8
LAYER_1
 62
    39
  6
CONTINUOUS
 10
-1.037004
 20
-0.687504
  0
VERTEX
  8
LAYER_1
 62
    39
  6
CONTINUOUS
 10
0.766996
 20
-0.687504
  0
VERTEX
  8
LAYER_1
 62
    39
  6
CONTINUOUS
 10
0.767996
 20
-0.687504
  0
VERTEX
  8
LAYER_1
 62
    39
  6
CONTINUOUS
 10
0.767996
 20
-1.486504
  0
VERTEX
  8
LAYER_1
 62
    39
  6
CONTINUOUS
 10
0.765996
 20
-1.486504
  0
VERTEX
  8
LAYER_1
 62
    39
  6
CONTINUOUS
 10
0.765996
 20
-0.687504
  0
VERTEX
  8
LAYER_1
 62
    39
  6
CONTINUOUS
 10
0.767996
 20
-0.687504
  0
VERTEX
  8
LAYER_1
 62
    39
  6
CONTINUOUS
 10
0.766996
 20
-0.687504
  0
VERTEX
  8
LAYER_1
 62
    39
  6
CONTINUOUS
 10
0.766996
 20
-1.486504
  0
VERTEX
  8
LAYER_1
 62
    39
  6
CONTINUOUS
 10
0.766996
 20
-1.487504
  0
VERTEX
  8
LAYER_1
 62
    39
  6
CONTINUOUS
 10
-1.037004
 20
-1.487504
  0
VERTEX
  8
LAYER_1
 62
    39
  6
CONTINUOUS
 10
-1.037004
 20
-1.485504
  0
VERTEX
  8
LAYER_1
 62
    39
  6
CONTINUOUS
 10
0.766996
 20
-1.485504
  0
VERTEX
  8
LAYER_1
 62
    39
  6
CONTINUOUS
 10
0.766996
 20
-1.487504
  0
VERTEX
  8
LAYER_1
 62
    39
  6
CONTINUOUS
 10
0.766996
 20
-1.486504
  0
VERTEX
  8
LAYER_1
 62
    39
  6
CONTINUOUS
 10
-1.037004
 20
-1.486504
  0
SEQEND
  8
0
  0
POLYLINE
  8
LAYER_1
 62
    39
  6
CONTINUOUS
 66
     1
 40
0.004390
 41
0.004390
  0
VERTEX
  8
LAYER_1
 62
    39
  6
CONTINUOUS
 10
-0.988004
 20
-1.466504
  0
VERTEX
  8
LAYER_1
 62
    39
  6
CONTINUOUS
 10
-0.957004
 20
-1.466504
  0
VERTEX
  8
LAYER_1
 62
    39
  6
CONTINUOUS
 10
-0.948004
 20
-1.457504
  0
VERTEX
  8
LAYER_1
 62
    39
  6
CONTINUOUS
 10
-0.948004
 20
-1.416504
  0
VERTEX
  8
LAYER_1
 62
    39
  6
CONTINUOUS
 10
-0.957004
 20
-1.406504
  0
VERTEX
  8
LAYER_1
 62
    39
  6
CONTINUOUS
 10
-0.988004
 20
-1.406504
  0
VERTEX
  8
LAYER_1
 62
    39
  6
CONTINUOUS
 10
-0.977004
 20
-1.406504
  0
VERTEX
  8
LAYER_1
 62
    39
  6
CONTINUOUS
 10
-0.977004
 20
-1.466504
  0
SEQEND
  8
0
  0
POLYLINE
  8
LAYER_1
 62
    39
  6
CONTINUOUS
 66
     1
 40
0.004390
 41
0.004390
  0
VERTEX
  8
LAYER_1
 62
    39
  6
CONTINUOUS
 10
-0.928004
 20
-1.466504
  0
VERTEX
  8
LAYER_1
 62
    39
  6
CONTINUOUS
 10
-0.928004
 20
-1.406504
  0
VERTEX
  8
LAYER_1
 62
    39
  6
CONTINUOUS
 10
-0.897004
 20
-1.406504
  0
VERTEX
  8
LAYER_1
 62
    39
  6
CONTINUOUS
 10
-0.887004
 20
-1.416504
  0
VERTEX
  8
LAYER_1
 62
    39
  6
CONTINUOUS
 10
-0.887004
 20
-1.426504
  0
VERTEX
  8
LAYER_1
 62
    39
  6
CONTINUOUS
 10
-0.897004
 20
-1.437504
  0
VERTEX
  8
LAYER_1
 62
    39
  6
CONTINUOUS
 10
-0.928004
 20
-1.437504
  0
VERTEX
  8
LAYER_1
 62
    39
  6
CONTINUOUS
 10
-0.917004
 20
-1.437504
  0
VERTEX
  8
LAYER_1
 62
    39
  6
CONTINUOUS
 10
-0.887004
 20
-1.466504
  0
SEQEND
  8
0
  0
POLYLINE
  8
LAYER_1
 62
    39
  6
CONTINUOUS
 66
     1
 40
0.004390
 41
0.004390
  0
VERTEX
  8
LAYER_1
 62
    39
  6
CONTINUOUS
 10
-0.868004
 20
-1.466504
  0
VERTEX
  8
LAYER_1
 62
    39
  6
CONTINUOUS
 10
-0.868004
 20
-1.447504
  0
VERTEX
  8
LAYER_1
 62
    39
  6
CONTINUOUS
 10
-0.847004
 20
-1.406504
  0
VERTEX
  8
LAYER_1
 62
    39
  6
CONTINUOUS
 10
-0.827004
 20
-1.447504
  0
VERTEX
  8
LAYER_1
 62
    39
  6
CONTINUOUS
 10
-0.868004
 20
-1.447504
  0
VERTEX
  8
LAYER_1
 62
    39
  6
CONTINUOUS
 10
-0.827004
 20
-1.447504
  0
VERTEX
  8
LAYER_1
 62
    39
  6
CONTINUOUS
 10
-0.827004
 20
-1.466504
  0
SEQEND
  8
0
  0
POLYLINE
  8
LAYER_1
 62
    39
  6
CONTINUOUS
 66
     1
 40
0.004390
 41
0.004390
  0
VERTEX
  8
LAYER_1
 62
    39
  6
CONTINUOUS
 10
-0.808004
 20
-1.457504
  0
VERTEX
  8
LAYER_1
 62
    39
  6
CONTINUOUS
 10
-0.808004
 20
-1.406504
  0
VERTEX
  8
LAYER_1
 62
    39
  6
CONTINUOUS
 10
-0.808004
 20
-1.457504
  0
VERTEX
  8
LAYER_1
 62
    39
  6
CONTINUOUS
 10
-0.798004
 20
-1.466504
  0
VERTEX
  8
LAYER_1
 62
    39
  6
CONTINUOUS
 10
-0.777004
 20
-1.447504
  0
VERTEX
  8
LAYER_1
 62
    39
  6
CONTINUOUS
 10
-0.777004
 20
-1.437504
  0
VERTEX
  8
LAYER_1
 62
    39
  6
CONTINUOUS
 10
-0.777004
 20
-1.447504
  0
VERTEX
  8
LAYER_1
 62
    39
  6
CONTINUOUS
 10
-0.758004
 20
-1.466504
  0
VERTEX
  8
LAYER_1
 62
    39
  6
CONTINUOUS
 10
-0.748004
 20
-1.457504
  0
VERTEX
  8
LAYER_1
 62
    39
  6
CONTINUOUS
 10
-0.748004
 20
-1.406504
  0
SEQEND
  8
0
  0
POLYLINE
  8
LAYER_1
 62
    39
  6
CONTINUOUS
 66
     1
 40
0.004390
 41
0.004390
  0
VERTEX
  8
LAYER_1
 62
    39
  6
CONTINUOUS
 10
-0.727004
 20
-1.466504
  0
VERTEX
  8
LAYER_1
 62
    39
  6
CONTINUOUS
 10
-0.727004
 20
-1.406504
  0
VERTEX
  8
LAYER_1
 62
    39
  6
CONTINUOUS
 10
-0.688004
 20
-1.447504
  0
VERTEX
  8
LAYER_1
 62
    39
  6
CONTINUOUS
 10
-0.688004
 20
-1.406504
  0
VERTEX
  8
LAYER_1
 62
    39
  6
CONTINUOUS
 10
-0.688004
 20
-1.466504
  0
SEQEND
  8
0
  0
POLYLINE
  8
LAYER_1
 62
    39
  6
CONTINUOUS
 66
     1
 40
0.004390
 41
0.004390
  0
VERTEX
  8
LAYER_1
 62
    39
  6
CONTINUOUS
 10
-0.582004
 20
-1.476504
  0
VERTEX
  8
LAYER_1
 62
    39
  6
CONTINUOUS
 10
-0.582004
 20
-1.404504
  0
VERTEX
  8
LAYER_1
 62
    39
  6
CONTINUOUS
 10
-0.547004
 20
-1.404504
  0
VERTEX
  8
LAYER_1
 62
    39
  6
CONTINUOUS
 10
-0.534004
 20
-1.416504
  0
VERTEX
  8
LAYER_1
 62
    39
  6
CONTINUOUS
 10
-0.534004
 20
-1.428504
  0
VERTEX
  8
LAYER_1
 62
    39
  6
CONTINUOUS
 10
-0.547004
 20
-1.441504
  0
VERTEX
  8
LAYER_1
 62
    39
  6
CONTINUOUS
 10
-0.582004
 20
-1.441504
  0
VERTEX
  8
LAYER_1
 62
    39
  6
CONTINUOUS
 10
-0.571004
 20
-1.441504
  0
VERTEX
  8
LAYER_1
 62
    39
  6
CONTINUOUS
 10
-0.534004
 20
-1.476504
  0
SEQEND
  8
0
  0
POLYLINE
  8
LAYER_1
 62
    39
  6
CONTINUOUS
 66
     1
 40
0.004390
 41
0.004390
  0
VERTEX
  8
LAYER_1
 62
    39
  6
CONTINUOUS
 10
-0.511004
 20
-1.464504
  0
VERTEX
  8
LAYER_1
 62
    39
  6
CONTINUOUS
 10
-0.511004
 20
-1.476504
  0
SEQEND
  8
0
  0
POLYLINE
  8
LAYER_1
 62
    39
  6
CONTINUOUS
 66
     1
 40
0.004390
 41
0.004390
  0
VERTEX
  8
LAYER_1
 62
    39
  6
CONTINUOUS
 10
-0.450004
 20
-1.441504
  0
VERTEX
  8
LAYER_1
 62
    39
  6
CONTINUOUS
 10
-0.439004
 20
-1.441504
  0
VERTEX
  8
LAYER_1
 62
    39
  6
CONTINUOUS
 10
-0.439004
 20
-1.476504
  0
VERTEX
  8
LAYER_1
 62
    39
  6
CONTINUOUS
 10
-0.474004
 20
-1.476504
  0
VERTEX
  8
LAYER_1
 62
    39
  6
CONTINUOUS
 10
-0.487004
 20
-1.464504
  0
VERTEX
  8
LAYER_1
 62
    39
  6
CONTINUOUS
 10
-0.487004
 20
-1.416504
  0
VERTEX
  8
LAYER_1
 62
    39
  6
CONTINUOUS
 10
-0.474004
 20
-1.404504
  0
VERTEX
  8
LAYER_1
 62
    39
  6
CONTINUOUS
 10
-0.439004
 20
-1.404504
  0
SEQEND
  8
0
  0
POLYLINE
  8
LAYER_1
 62
    39
  6
CONTINUOUS
 66
     1
 40
0.004390
 41
0.004390
  0
VERTEX
  8
LAYER_1
 62
    39
  6
CONTINUOUS
 10
-0.414004
 20
-1.464504
  0
VERTEX
  8
LAYER_1
 62
    39
  6
CONTINUOUS
 10
-0.414004
 20
-1.476504
  0
SEQEND
  8
0
  0
POLYLINE
  8
LAYER_1
 62
    39
  6
CONTINUOUS
 66
     1
 40
0.004390
 41
0.004390
  0
VERTEX
  8
LAYER_1
 62
    39
  6
CONTINUOUS
 10
-0.388004
 20
-1.486504
  0
VERTEX
  8
LAYER_1
 62
    39
  6
CONTINUOUS
 10
-0.388004
 20
-1.387504
  0
VERTEX
  8
LAYER_1
 62
    39
  6
CONTINUOUS
 10
-0.387004
 20
-1.387504
  0
VERTEX
  8
LAYER_1
 62
    39
  6
CONTINUOUS
 10
-0.387004
 20
-1.486504
  0
VERTEX
  8
LAYER_1
 62
    39
  6
CONTINUOUS
 10
-0.388004
 20
-1.486504
  0
VERTEX
  8
LAYER_1
 62
    39
  6
CONTINUOUS
 10
-0.387004
 20
-1.486504
  0
VERTEX
  8
LAYER_1
 62
    39
  6
CONTINUOUS
 10
-0.387004
 20
-1.387504
  0
SEQEND
  8
0
  0
POLYLINE
  8
LAYER_1
 62
    39
  6
CONTINUOUS
 66
     1
 40
0.004390
 41
0.004390
  0
VERTEX
  8
LAYER_1
 62
    39
  6
CONTINUOUS
 10
-0.287004
 20
-1.399504
  0
VERTEX
  8
LAYER_1
 62
    39
  6
CONTINUOUS
 10
-0.287004
 20
-1.471504
  0
VERTEX
  8
LAYER_1
 62
    39
  6
CONTINUOUS
 10
-0.287004
 20
-1.399504
  0
VERTEX
  8
LAYER_1
 62
    39
  6
CONTINUOUS
 10
-0.252004
 20
-1.399504
  0
VERTEX
  8
LAYER_1
 62
    39
  6
CONTINUOUS
 10
-0.240004
 20
-1.411504
  0
VERTEX
  8
LAYER_1
 62
    39
  6
CONTINUOUS
 10
-0.240004
 20
-1.423504
  0
VERTEX
  8
LAYER_1
 62
    39
  6
CONTINUOUS
 10
-0.252004
 20
-1.436504
  0
VERTEX
  8
LAYER_1
 62
    39
  6
CONTINUOUS
 10
-0.287004
 20
-1.436504
  0
VERTEX
  8
LAYER_1
 62
    39
  6
CONTINUOUS
 10
-0.275004
 20
-1.436504
  0
VERTEX
  8
LAYER_1
 62
    39
  6
CONTINUOUS
 10
-0.240004
 20
-1.471504
  0
SEQEND
  8
0
  0
POLYLINE
  8
LAYER_1
 62
    39
  6
CONTINUOUS
 66
     1
 40
0.004390
 41
0.004390
  0
VERTEX
  8
LAYER_1
 62
    39
  6
CONTINUOUS
 10
-0.215004
 20
-1.399504
  0
VERTEX
  8
LAYER_1
 62
    39
  6
CONTINUOUS
 10
-0.215004
 20
-1.471504
  0
VERTEX
  8
LAYER_1
 62
    39
  6
CONTINUOUS
 10
-0.215004
 20
-1.399504
  0
VERTEX
  8
LAYER_1
 62
    39
  6
CONTINUOUS
 10
-0.167004
 20
-1.399504
  0
VERTEX
  8
LAYER_1
 62
    39
  6
CONTINUOUS
 10
-0.215004
 20
-1.399504
  0
VERTEX
  8
LAYER_1
 62
    39
  6
CONTINUOUS
 10
-0.215004
 20
-1.436504
  0
VERTEX
  8
LAYER_1
 62
    39
  6
CONTINUOUS
 10
-0.192004
 20
-1.436504
  0
VERTEX
  8
LAYER_1
 62
    39
  6
CONTINUOUS
 10
-0.215004
 20
-1.436504
  0
VERTEX
  8
LAYER_1
 62
    39
  6
CONTINUOUS
 10
-0.215004
 20
-1.471504
  0
VERTEX
  8
LAYER_1
 62
    39
  6
CONTINUOUS
 10
-0.167004
 20
-1.471504
  0
SEQEND
  8
0
  0
POLYLINE
  8
LAYER_1
 62
    39
  6
CONTINUOUS
 66
     1
 40
0.004390
 41
0.004390
  0
VERTEX
  8
LAYER_1
 62
    39
  6
CONTINUOUS
 10
-0.143004
 20
-1.399504
  0
VERTEX
  8
LAYER_1
 62
    39
  6
CONTINUOUS
 10
-0.108004
 20
-1.471504
  0
VERTEX
  8
LAYER_1
 62
    39
  6
CONTINUOUS
 10
-0.072004
 20
-1.399504
  0
SEQEND
  8
0
  0
POLYLINE
  8
LAYER_1
 62
    39
  6
CONTINUOUS
 66
     1
 40
0.004390
 41
0.004390
  0
VERTEX
  8
LAYER_1
 62
    39
  6
CONTINUOUS
 10
-0.003004
 20
-1.466504
  0
VERTEX
  8
LAYER_1
 62
    39
  6
CONTINUOUS
 10
0.006996
 20
-1.457504
  0
VERTEX
  8
LAYER_1
 62
    39
  6
CONTINUOUS
 10
-0.003004
 20
-1.466504
  0
VERTEX
  8
LAYER_1
 62
    39
  6
CONTINUOUS
 10
-0.022004
 20
-1.466504
  0
VERTEX
  8
LAYER_1
 62
    39
  6
CONTINUOUS
 10
-0.032004
 20
-1.457504
  0
VERTEX
  8
LAYER_1
 62
    39
  6
CONTINUOUS
 10
-0.032004
 20
-1.416504
  0
VERTEX
  8
LAYER_1
 62
    39
  6
CONTINUOUS
 10
-0.022004
 20
-1.406504
  0
VERTEX
  8
LAYER_1
 62
    39
  6
CONTINUOUS
 10
-0.003004
 20
-1.406504
  0
VERTEX
  8
LAYER_1
 62
    39
  6
CONTINUOUS
 10
0.006996
 20
-1.416504
  0
SEQEND
  8
0
  0
POLYLINE
  8
LAYER_1
 62
    39
  6
CONTINUOUS
 66
     1
 40
0.004390
 41
0.004390
  0
VERTEX
  8
LAYER_1
 62
    39
  6
CONTINUOUS
 10
0.088996
 20
-1.387504
  0
VERTEX
  8
LAYER_1
 62
    39
  6
CONTINUOUS
 10
0.088996
 20
-1.486504
  0
VERTEX
  8
LAYER_1
 62
    39
  6
CONTINUOUS
 10
0.086996
 20
-1.486504
  0
VERTEX
  8
LAYER_1
 62
    39
  6
CONTINUOUS
 10
0.086996
 20
-1.387504
  0
VERTEX
  8
LAYER_1
 62
    39
  6
CONTINUOUS
 10
0.088996
 20
-1.387504
  0
VERTEX
  8
LAYER_1
 62
    39
  6
CONTINUOUS
 10
0.087996
 20
-1.387504
  0
VERTEX
  8
LAYER_1
 62
    39
  6
CONTINUOUS
 10
0.087996
 20
-1.486504
  0
SEQEND
  8
0
  0
POLYLINE
  8
LAYER_1
 62
    39
  6
CONTINUOUS
 66
     1
 40
0.004390
 41
0.004390
  0
VERTEX
  8
LAYER_1
 62
    39
  6
CONTINUOUS
 10
0.131996
 20
-1.471504
  0
VERTEX
  8
LAYER_1
 62
    39
  6
CONTINUOUS
 10
0.168996
 20
-1.471504
  0
VERTEX
  8
LAYER_1
 62
    39
  6
CONTINUOUS
 10
0.179996
 20
-1.460504
  0
VERTEX
  8
LAYER_1
 62
    39
  6
CONTINUOUS
 10
0.179996
 20
-1.411504
  0
VERTEX
  8
LAYER_1
 62
    39
  6
CONTINUOUS
 10
0.168996
 20
-1.399504
  0
VERTEX
  8
LAYER_1
 62
    39
  6
CONTINUOUS
 10
0.131996
 20
-1.399504
  0
VERTEX
  8
LAYER_1
 62
    39
  6
CONTINUOUS
 10
0.144996
 20
-1.399504
  0
VERTEX
  8
LAYER_1
 62
    39
  6
CONTINUOUS
 10
0.144996
 20
-1.471504
  0
SEQEND
  8
0
  0
POLYLINE
  8
LAYER_1
 62
    39
  6
CONTINUOUS
 66
     1
 40
0.004390
 41
0.004390
  0
VERTEX
  8
LAYER_1
 62
    39
  6
CONTINUOUS
 10
0.203996
 20
-1.471504
  0
VERTEX
  8
LAYER_1
 62
    39
  6
CONTINUOUS
 10
0.203996
 20
-1.448504
  0
VERTEX
  8
LAYER_1
 62
    39
  6
CONTINUOUS
 10
0.228996
 20
-1.399504
  0
VERTEX
  8
LAYER_1
 62
    39
  6
CONTINUOUS
 10
0.251996
 20
-1.448504
  0
VERTEX
  8
LAYER_1
 62
    39
  6
CONTINUOUS
 10
0.203996
 20
-1.448504
  0
VERTEX
  8
LAYER_1
 62
    39
  6
CONTINUOUS
 10
0.251996
 20
-1.448504
  0
VERTEX
  8
LAYER_1
 62
    39
  6
CONTINUOUS
 10
0.251996
 20
-1.471504
  0
SEQEND
  8
0
  0
POLYLINE
  8
LAYER_1
 62
    39
  6
CONTINUOUS
 66
     1
 40
0.004390
 41
0.004390
  0
VERTEX
  8
LAYER_1
 62
    39
  6
CONTINUOUS
 10
0.276996
 20
-1.399504
  0
VERTEX
  8
LAYER_1
 62
    39
  6
CONTINUOUS
 10
0.323996
 20
-1.399504
  0
VERTEX
  8
LAYER_1
 62
    39
  6
CONTINUOUS
 10
0.299996
 20
-1.399504
  0
VERTEX
  8
LAYER_1
 62
    39
  6
CONTINUOUS
 10
0.299996
 20
-1.471504
  0
SEQEND
  8
0
  0
POLYLINE
  8
LAYER_1
 62
    39
  6
CONTINUOUS
 66
     1
 40
0.004390
 41
0.004390
  0
VERTEX
  8
LAYER_1
 62
    39
  6
CONTINUOUS
 10
0.348996
 20
-1.471504
  0
VERTEX
  8
LAYER_1
 62
    39
  6
CONTINUOUS
 10
0.348996
 20
-1.399504
  0
VERTEX
  8
LAYER_1
 62
    39
  6
CONTINUOUS
 10
0.396996
 20
-1.399504
  0
VERTEX
  8
LAYER_1
 62
    39
  6
CONTINUOUS
 10
0.348996
 20
-1.399504
  0
VERTEX
  8
LAYER_1
 62
    39
  6
CONTINUOUS
 10
0.348996
 20
-1.436504
  0
VERTEX
  8
LAYER_1
 62
    39
  6
CONTINUOUS
 10
0.371996
 20
-1.436504
  0
VERTEX
  8
LAYER_1
 62
    39
  6
CONTINUOUS
 10
0.348996
 20
-1.436504
  0
VERTEX
  8
LAYER_1
 62
    39
  6
CONTINUOUS
 10
0.348996
 20
-1.471504
  0
VERTEX
  8
LAYER_1
 62
    39
  6
CONTINUOUS
 10
0.396996
 20
-1.471504
  0
SEQEND
  8
0
  0
POLYLINE
  8
LAYER_1
 62
    39
  6
CONTINUOUS
 66
     1
 40
0.004390
 41
0.004390
  0
VERTEX
  8
LAYER_1
 62
    39
  6
CONTINUOUS
 10
0.451996
 20
-1.411504
  0
VERTEX
  8
LAYER_1
 62
    39
  6
CONTINUOUS
 10
0.462996
 20
-1.401504
  0
VERTEX
  8
LAYER_1
 62
    39
  6
CONTINUOUS
 10
0.462996
 20
-1.461504
  0
VERTEX
  8
LAYER_1
 62
    39
  6
CONTINUOUS
 10
0.451996
 20
-1.461504
  0
VERTEX
  8
LAYER_1
 62
    39
  6
CONTINUOUS
 10
0.472996
 20
-1.461504
  0
SEQEND
  8
0
  0
POLYLINE
  8
LAYER_1
 62
    39
  6
CONTINUOUS
 66
     1
 40
0.004390
 41
0.004390
  0
VERTEX
  8
LAYER_1
 62
    39
  6
CONTINUOUS
 10
0.491996
 20
-1.452504
  0
VERTEX
  8
LAYER_1
 62
    39
  6
CONTINUOUS
 10
0.501996
 20
-1.461504
  0
VERTEX
  8
LAYER_1
 62
    39
  6
CONTINUOUS
 10
0.491996
 20
-1.452504
  0
VERTEX
  8
LAYER_1
 62
    39
  6
CONTINUOUS
 10
0.491996
 20
-1.411504
  0
VERTEX
  8
LAYER_1
 62
    39
  6
CONTINUOUS
 10
0.501996
 20
-1.401504
  0
VERTEX
  8
LAYER_1
 62
    39
  6
CONTINUOUS
 10
0.511996
 20
-1.401504
  0
VERTEX
  8
LAYER_1
 62
    39
  6
CONTINUOUS
 10
0.522996
 20
-1.411504
  0
VERTEX
  8
LAYER_1
 62
    39
  6
CONTINUOUS
 10
0.522996
 20
-1.452504
  0
VERTEX
  8
LAYER_1
 62
    39
  6
CONTINUOUS
 10
0.511996
 20
-1.461504
  0
VERTEX
  8
LAYER_1
 62
    39
  6
CONTINUOUS
 10
0.501996
 20
-1.461504
  0
SEQEND
  8
0
  0
POLYLINE
  8
LAYER_1
 62
    39
  6
CONTINUOUS
 66
     1
 40
0.004390
 41
0.004390
  0
VERTEX
  8
LAYER_1
 62
    39
  6
CONTINUOUS
 10
0.542996
 20
-1.461504
  0
VERTEX
  8
LAYER_1
 62
    39
  6
CONTINUOUS
 10
0.542996
 20
-1.452504
  0
VERTEX
  8
LAYER_1
 62
    39
  6
CONTINUOUS
 10
0.582996
 20
-1.411504
  0
VERTEX
  8
LAYER_1
 62
    39
  6
CONTINUOUS
 10
0.582996
 20
-1.401504
  0
SEQEND
  8
0
  0
POLYLINE
  8
LAYER_1
 62
    39
  6
CONTINUOUS
 66
     1
 40
0.004390
 41
0.004390
  0
VERTEX
  8
LAYER_1
 62
    39
  6
CONTINUOUS
 10
0.612996
 20
-1.461504
  0
VERTEX
  8
LAYER_1
 62
    39
  6
CONTINUOUS
 10
0.621996
 20
-1.461504
  0
VERTEX
  8
LAYER_1
 62
    39
  6
CONTINUOUS
 10
0.641996
 20
-1.442504
  0
VERTEX
  8
LAYER_1
 62
    39
  6
CONTINUOUS
 10
0.641996
 20
-1.411504
  0
VERTEX
  8
LAYER_1
 62
    39
  6
CONTINUOUS
 10
0.631996
 20
-1.401504
  0
VERTEX
  8
LAYER_1
 62
    39
  6
CONTINUOUS
 10
0.612996
 20
-1.401504
  0
VERTEX
  8
LAYER_1
 62
    39
  6
CONTINUOUS
 10
0.602996
 20
-1.411504
  0
VERTEX
  8
LAYER_1
 62
    39
  6
CONTINUOUS
 10
0.602996
 20
-1.421504
  0
VERTEX
  8
LAYER_1
 62
    39
  6
CONTINUOUS
 10
0.612996
 20
-1.432504
  0
VERTEX
  8
LAYER_1
 62
    39
  6
CONTINUOUS
 10
0.641996
 20
-1.432504
  0
SEQEND
  8
0
  0
POLYLINE
  8
LAYER_1
 62
    39
  6
CONTINUOUS
 66
     1
 40
0.004390
 41
0.004390
  0
VERTEX
  8
LAYER_1
 62
    39
  6
CONTINUOUS
 10
0.662996
 20
-1.452504
  0
VERTEX
  8
LAYER_1
 62
    39
  6
CONTINUOUS
 10
0.672996
 20
-1.461504
  0
VERTEX
  8
LAYER_1
 62
    39
  6
CONTINUOUS
 10
0.662996
 20
-1.452504
  0
VERTEX
  8
LAYER_1
 62
    39
  6
CONTINUOUS
 10
0.662996
 20
-1.442504
  0
VERTEX
  8
LAYER_1
 62
    39
  6
CONTINUOUS
 10
0.672996
 20
-1.432504
  0
VERTEX
  8
LAYER_1
 62
    39
  6
CONTINUOUS
 10
0.691996
 20
-1.432504
  0
VERTEX
  8
LAYER_1
 62
    39
  6
CONTINUOUS
 10
0.701996
 20
-1.421504
  0
VERTEX
  8
LAYER_1
 62
    39
  6
CONTINUOUS
 10
0.701996
 20
-1.411504
  0
VERTEX
  8
LAYER_1
 62
    39
  6
CONTINUOUS
 10
0.691996
 20
-1.401504
  0
VERTEX
  8
LAYER_1
 62
    39
  6
CONTINUOUS
 10
0.672996
 20
-1.401504
  0
VERTEX
  8
LAYER_1
 62
    39
  6
CONTINUOUS
 10
0.662996
 20
-1.411504
  0
VERTEX
  8
LAYER_1
 62
    39
  6
CONTINUOUS
 10
0.662996
 20
-1.421504
  0
VERTEX
  8
LAYER_1
 62
    39
  6
CONTINUOUS
 10
0.672996
 20
-1.432504
  0
VERTEX
  8
LAYER_1
 62
    39
  6
CONTINUOUS
 10
0.691996
 20
-1.432504
  0
VERTEX
  8
LAYER_1
 62
    39
  6
CONTINUOUS
 10
0.701996
 20
-1.442504
  0
VERTEX
  8
LAYER_1
 62
    39
  6
CONTINUOUS
 10
0.701996
 20
-1.452504
  0
VERTEX
  8
LAYER_1
 62
    39
  6
CONTINUOUS
 10
0.691996
 20
-1.461504
  0
VERTEX
  8
LAYER_1
 62
    39
  6
CONTINUOUS
 10
0.672996
 20
-1.461504
  0
SEQEND
  8
0
  0
POLYLINE
  8
LAYER_1
 62
    39
  6
CONTINUOUS
 66
     1
 40
0.004390
 41
0.004390
  0
VERTEX
  8
LAYER_1
 62
    39
  6
CONTINUOUS
 10
0.761996
 20
-1.388504
  0
VERTEX
  8
LAYER_1
 62
    39
  6
CONTINUOUS
 10
-1.037004
 20
-1.388504
  0
VERTEX
  8
LAYER_1
 62
    39
  6
CONTINUOUS
 10
-1.037004
 20
-1.386504
  0
VERTEX
  8
LAYER_1
 62
    39
  6
CONTINUOUS
 10
0.761996
 20
-1.386504
  0
VERTEX
  8
LAYER_1
 62
    39
  6
CONTINUOUS
 10
0.761996
 20
-1.388504
  0
VERTEX
  8
LAYER_1
 62
    39
  6
CONTINUOUS
 10
0.761996
 20
-1.387504
  0
VERTEX
  8
LAYER_1
 62
    39
  6
CONTINUOUS
 10
-1.037004
 20
-1.387504
  0
SEQEND
  8
0
  0
POLYLINE
  8
LAYER_1
 62
    39
  6
CONTINUOUS
 66
     1
 40
0.004390
 41
0.004390
  0
VERTEX
  8
LAYER_1
 62
    39
  6
CONTINUOUS
 10
-1.037004
 20
-1.011504
  0
VERTEX
  8
LAYER_1
 62
    39
  6
CONTINUOUS
 10
0.761996
 20
-1.011504
  0
VERTEX
  8
LAYER_1
 62
    39
  6
CONTINUOUS
 10
0.761996
 20
-1.013504
  0
VERTEX
  8
LAYER_1
 62
    39
  6
CONTINUOUS
 10
-1.037004
 20
-1.013504
  0
VERTEX
  8
LAYER_1
 62
    39
  6
CONTINUOUS
 10
-1.037004
 20
-1.011504
  0
VERTEX
  8
LAYER_1
 62
    39
  6
CONTINUOUS
 10
-1.037004
 20
-1.012504
  0
VERTEX
  8
LAYER_1
 62
    39
  6
CONTINUOUS
 10
0.761996
 20
-1.012504
  0
SEQEND
  8
0
  0
POLYLINE
  8
LAYER_1
 62
    39
  6
CONTINUOUS
 66
     1
 40
0.004390
 41
0.004390
  0
VERTEX
  8
LAYER_1
 62
    39
  6
CONTINUOUS
 10
0.433996
 20
-0.782504
  0
VERTEX
  8
LAYER_1
 62
    39
  6
CONTINUOUS
 10
0.416996
 20
-0.782504
  0
VERTEX
  8
LAYER_1
 62
    39
  6
CONTINUOUS
 10
0.433996
 20
-0.782504
  0
VERTEX
  8
LAYER_1
 62
    39
  6
CONTINUOUS
 10
0.433996
 20
-0.836504
  0
VERTEX
  8
LAYER_1
 62
    39
  6
CONTINUOUS
 10
0.379996
 20
-0.836504
  0
VERTEX
  8
LAYER_1
 62
    39
  6
CONTINUOUS
 10
0.362996
 20
-0.819504
  0
VERTEX
  8
LAYER_1
 62
    39
  6
CONTINUOUS
 10
0.362996
 20
-0.747504
  0
VERTEX
  8
LAYER_1
 62
    39
  6
CONTINUOUS
 10
0.379996
 20
-0.728504
  0
VERTEX
  8
LAYER_1
 62
    39
  6
CONTINUOUS
 10
0.433996
 20
-0.728504
  0
SEQEND
  8
0
  0
POLYLINE
  8
LAYER_1
 62
    39
  6
CONTINUOUS
 66
     1
 40
0.004390
 41
0.004390
  0
VERTEX
  8
LAYER_1
 62
    39
  6
CONTINUOUS
 10
0.312996
 20
-0.787504
  0
VERTEX
  8
LAYER_1
 62
    39
  6
CONTINUOUS
 10
0.288996
 20
-0.812504
  0
VERTEX
  8
LAYER_1
 62
    39
  6
CONTINUOUS
 10
0.286996
 20
-0.811504
  0
VERTEX
  8
LAYER_1
 62
    39
  6
CONTINUOUS
 10
0.310996
 20
-0.785504
  0
VERTEX
  8
LAYER_1
 62
    39
  6
CONTINUOUS
 10
0.312996
 20
-0.787504
  0
VERTEX
  8
LAYER_1
 62
    39
  6
CONTINUOUS
 10
0.311996
 20
-0.786504
  0
VERTEX
  8
LAYER_1
 62
    39
  6
CONTINUOUS
 10
0.287996
 20
-0.812504
  0
VERTEX
  8
LAYER_1
 62
    39
  6
CONTINUOUS
 10
0.286996
 20
-0.812504
  0
VERTEX
  8
LAYER_1
 62
    39
  6
CONTINUOUS
 10
0.261996
 20
-0.787504
  0
VERTEX
  8
LAYER_1
 62
    39
  6
CONTINUOUS
 10
0.262996
 20
-0.785504
  0
VERTEX
  8
LAYER_1
 62
    39
  6
CONTINUOUS
 10
0.288996
 20
-0.811504
  0
VERTEX
  8
LAYER_1
 62
    39
  6
CONTINUOUS
 10
0.286996
 20
-0.812504
  0
VERTEX
  8
LAYER_1
 62
    39
  6
CONTINUOUS
 10
0.287996
 20
-0.812504
  0
VERTEX
  8
LAYER_1
 62
    39
  6
CONTINUOUS
 10
0.261996
 20
-0.786504
  0
VERTEX
  8
LAYER_1
 62
    39
  6
CONTINUOUS
 10
0.261996
 20
-0.785504
  0
VERTEX
  8
LAYER_1
 62
    39
  6
CONTINUOUS
 10
0.286996
 20
-0.761504
  0
VERTEX
  8
LAYER_1
 62
    39
  6
CONTINUOUS
 10
0.288996
 20
-0.763504
  0
VERTEX
  8
LAYER_1
 62
    39
  6
CONTINUOUS
 10
0.262996
 20
-0.787504
  0
VERTEX
  8
LAYER_1
 62
    39
  6
CONTINUOUS
 10
0.261996
 20
-0.785504
  0
VERTEX
  8
LAYER_1
 62
    39
  6
CONTINUOUS
 10
0.261996
 20
-0.786504
  0
VERTEX
  8
LAYER_1
 62
    39
  6
CONTINUOUS
 10
0.287996
 20
-0.762504
  0
VERTEX
  8
LAYER_1
 62
    39
  6
CONTINUOUS
 10
0.288996
 20
-0.761504
  0
VERTEX
  8
LAYER_1
 62
    39
  6
CONTINUOUS
 10
0.312996
 20
-0.785504
  0
VERTEX
  8
LAYER_1
 62
    39
  6
CONTINUOUS
 10
0.310996
 20
-0.787504
  0
VERTEX
  8
LAYER_1
 62
    39
  6
CONTINUOUS
 10
0.286996
 20
-0.763504
  0
VERTEX
  8
LAYER_1
 62
    39
  6
CONTINUOUS
 10
0.288996
 20
-0.761504
  0
VERTEX
  8
LAYER_1
 62
    39
  6
CONTINUOUS
 10
0.287996
 20
-0.762504
  0
VERTEX
  8
LAYER_1
 62
    39
  6
CONTINUOUS
 10
0.311996
 20
-0.786504
  0
SEQEND
  8
0
  0
POLYLINE
  8
LAYER_1
 62
    39
  6
CONTINUOUS
 66
     1
 40
0.004390
 41
0.004390
  0
VERTEX
  8
LAYER_1
 62
    39
  6
CONTINUOUS
 10
0.162996
 20
-0.836504
  0
VERTEX
  8
LAYER_1
 62
    39
  6
CONTINUOUS
 10
0.162996
 20
-0.728504
  0
VERTEX
  8
LAYER_1
 62
    39
  6
CONTINUOUS
 10
0.216996
 20
-0.728504
  0
VERTEX
  8
LAYER_1
 62
    39
  6
CONTINUOUS
 10
0.234996
 20
-0.747504
  0
VERTEX
  8
LAYER_1
 62
    39
  6
CONTINUOUS
 10
0.234996
 20
-0.765504
  0
VERTEX
  8
LAYER_1
 62
    39
  6
CONTINUOUS
 10
0.216996
 20
-0.782504
  0
VERTEX
  8
LAYER_1
 62
    39
  6
CONTINUOUS
 10
0.162996
 20
-0.782504
  0
VERTEX
  8
LAYER_1
 62
    39
  6
CONTINUOUS
 10
0.179996
 20
-0.782504
  0
VERTEX
  8
LAYER_1
 62
    39
  6
CONTINUOUS
 10
0.234996
 20
-0.836504
  0
SEQEND
  8
0
  0
POLYLINE
  8
LAYER_1
 62
    39
  6
CONTINUOUS
 66
     1
 40
0.004390
 41
0.004390
  0
VERTEX
  8
LAYER_1
 62
    39
  6
CONTINUOUS
 10
0.285996
 20
-0.950504
  0
VERTEX
  8
LAYER_1
 62
    39
  6
CONTINUOUS
 10
0.273996
 20
-0.961504
  0
VERTEX
  8
LAYER_1
 62
    39
  6
CONTINUOUS
 10
0.248996
 20
-0.961504
  0
VERTEX
  8
LAYER_1
 62
    39
  6
CONTINUOUS
 10
0.237996
 20
-0.950504
  0
VERTEX
  8
LAYER_1
 62
    39
  6
CONTINUOUS
 10
0.237996
 20
-0.901504
  0
VERTEX
  8
LAYER_1
 62
    39
  6
CONTINUOUS
 10
0.248996
 20
-0.890504
  0
VERTEX
  8
LAYER_1
 62
    39
  6
CONTINUOUS
 10
0.273996
 20
-0.890504
  0
VERTEX
  8
LAYER_1
 62
    39
  6
CONTINUOUS
 10
0.285996
 20
-0.901504
  0
SEQEND
  8
0
  0
POLYLINE
  8
LAYER_1
 62
    39
  6
CONTINUOUS
 66
     1
 40
0.004390
 41
0.004390
  0
VERTEX
  8
LAYER_1
 62
    39
  6
CONTINUOUS
 10
0.308996
 20
-0.890504
  0
VERTEX
  8
LAYER_1
 62
    39
  6
CONTINUOUS
 10
0.308996
 20
-0.961504
  0
SEQEND
  8
0
  0
POLYLINE
  8
LAYER_1
 62
    39
  6
CONTINUOUS
 66
     1
 40
0.004390
 41
0.004390
  0
VERTEX
  8
LAYER_1
 62
    39
  6
CONTINUOUS
 10
0.357996
 20
-0.890504
  0
VERTEX
  8
LAYER_1
 62
    39
  6
CONTINUOUS
 10
0.357996
 20
-0.925504
  0
VERTEX
  8
LAYER_1
 62
    39
  6
CONTINUOUS
 10
0.308996
 20
-0.925504
  0
VERTEX
  8
LAYER_1
 62
    39
  6
CONTINUOUS
 10
0.357996
 20
-0.925504
  0
VERTEX
  8
LAYER_1
 62
    39
  6
CONTINUOUS
 10
0.357996
 20
-0.961504
  0
SEQEND
  8
0
  0
POLYLINE
  8
LAYER_1
 62
    39
  6
CONTINUOUS
 66
     1
 40
0.004390
 41
0.004390
  0
VERTEX
  8
LAYER_1
 62
    39
  6
CONTINUOUS
 10
0.112996
 20
-0.787504
  0
VERTEX
  8
LAYER_1
 62
    39
  6
CONTINUOUS
 10
0.087996
 20
-0.812504
  0
VERTEX
  8
LAYER_1
 62
    39
  6
CONTINUOUS
 10
0.086996
 20
-0.811504
  0
VERTEX
  8
LAYER_1
 62
    39
  6
CONTINUOUS
 10
0.111996
 20
-0.785504
  0
VERTEX
  8
LAYER_1
 62
    39
  6
CONTINUOUS
 10
0.112996
 20
-0.787504
  0
VERTEX
  8
LAYER_1
 62
    39
  6
CONTINUOUS
 10
0.112996
 20
-0.786504
  0
VERTEX
  8
LAYER_1
 62
    39
  6
CONTINUOUS
 10
0.087996
 20
-0.812504
  0
VERTEX
  8
LAYER_1
 62
    39
  6
CONTINUOUS
 10
0.086996
 20
-0.812504
  0
VERTEX
  8
LAYER_1
 62
    39
  6
CONTINUOUS
 10
0.060996
 20
-0.787504
  0
VERTEX
  8
LAYER_1
 62
    39
  6
CONTINUOUS
 10
0.062996
 20
-0.785504
  0
VERTEX
  8
LAYER_1
 62
    39
  6
CONTINUOUS
 10
0.087996
 20
-0.811504
  0
VERTEX
  8
LAYER_1
 62
    39
  6
CONTINUOUS
 10
0.086996
 20
-0.812504
  0
VERTEX
  8
LAYER_1
 62
    39
  6
CONTINUOUS
 10
0.087996
 20
-0.812504
  0
VERTEX
  8
LAYER_1
 62
    39
  6
CONTINUOUS
 10
0.061996
 20
-0.786504
  0
VERTEX
  8
LAYER_1
 62
    39
  6
CONTINUOUS
 10
0.060996
 20
-0.785504
  0
VERTEX
  8
LAYER_1
 62
    39
  6
CONTINUOUS
 10
0.086996
 20
-0.761504
  0
VERTEX
  8
LAYER_1
 62
    39
  6
CONTINUOUS
 10
0.087996
 20
-0.763504
  0
VERTEX
  8
LAYER_1
 62
    39
  6
CONTINUOUS
 10
0.062996
 20
-0.787504
  0
VERTEX
  8
LAYER_1
 62
    39
  6
CONTINUOUS
 10
0.060996
 20
-0.785504
  0
VERTEX
  8
LAYER_1
 62
    39
  6
CONTINUOUS
 10
0.061996
 20
-0.786504
  0
VERTEX
  8
LAYER_1
 62
    39
  6
CONTINUOUS
 10
0.087996
 20
-0.762504
  0
VERTEX
  8
LAYER_1
 62
    39
  6
CONTINUOUS
 10
0.087996
 20
-0.761504
  0
VERTEX
  8
LAYER_1
 62
    39
  6
CONTINUOUS
 10
0.112996
 20
-0.785504
  0
VERTEX
  8
LAYER_1
 62
    39
  6
CONTINUOUS
 10
0.111996
 20
-0.787504
  0
VERTEX
  8
LAYER_1
 62
    39
  6
CONTINUOUS
 10
0.086996
 20
-0.763504
  0
VERTEX
  8
LAYER_1
 62
    39
  6
CONTINUOUS
 10
0.087996
 20
-0.761504
  0
VERTEX
  8
LAYER_1
 62
    39
  6
CONTINUOUS
 10
0.087996
 20
-0.762504
  0
VERTEX
  8
LAYER_1
 62
    39
  6
CONTINUOUS
 10
0.112996
 20
-0.786504
  0
SEQEND
  8
0
  0
POLYLINE
  8
LAYER_1
 62
    39
  6
CONTINUOUS
 66
     1
 40
0.004390
 41
0.004390
  0
VERTEX
  8
LAYER_1
 62
    39
  6
CONTINUOUS
 10
-0.063004
 20
-0.836504
  0
VERTEX
  8
LAYER_1
 62
    39
  6
CONTINUOUS
 10
-0.063004
 20
-0.728504
  0
SEQEND
  8
0
  0
POLYLINE
  8
LAYER_1
 62
    39
  6
CONTINUOUS
 66
     1
 40
0.004390
 41
0.004390
  0
VERTEX
  8
LAYER_1
 62
    39
  6
CONTINUOUS
 10
0.008996
 20
-0.728504
  0
VERTEX
  8
LAYER_1
 62
    39
  6
CONTINUOUS
 10
-0.045004
 20
-0.782504
  0
VERTEX
  8
LAYER_1
 62
    39
  6
CONTINUOUS
 10
-0.063004
 20
-0.782504
  0
VERTEX
  8
LAYER_1
 62
    39
  6
CONTINUOUS
 10
-0.045004
 20
-0.782504
  0
VERTEX
  8
LAYER_1
 62
    39
  6
CONTINUOUS
 10
0.008996
 20
-0.836504
  0
SEQEND
  8
0
  0
POLYLINE
  8
LAYER_1
 62
    39
  6
CONTINUOUS
 66
     1
 40
0.004390
 41
0.004390
  0
VERTEX
  8
LAYER_1
 62
    39
  6
CONTINUOUS
 10
-0.138004
 20
-0.787504
  0
VERTEX
  8
LAYER_1
 62
    39
  6
CONTINUOUS
 10
-0.163004
 20
-0.763504
  0
VERTEX
  8
LAYER_1
 62
    39
  6
CONTINUOUS
 10
-0.162004
 20
-0.761504
  0
VERTEX
  8
LAYER_1
 62
    39
  6
CONTINUOUS
 10
-0.137004
 20
-0.785504
  0
VERTEX
  8
LAYER_1
 62
    39
  6
CONTINUOUS
 10
-0.138004
 20
-0.787504
  0
VERTEX
  8
LAYER_1
 62
    39
  6
CONTINUOUS
 10
-0.137004
 20
-0.786504
  0
VERTEX
  8
LAYER_1
 62
    39
  6
CONTINUOUS
 10
-0.162004
 20
-0.762504
  0
VERTEX
  8
LAYER_1
 62
    39
  6
CONTINUOUS
 10
-0.162004
 20
-0.763504
  0
VERTEX
  8
LAYER_1
 62
    39
  6
CONTINUOUS
 10
-0.187004
 20
-0.787504
  0
VERTEX
  8
LAYER_1
 62
    39
  6
CONTINUOUS
 10
-0.189004
 20
-0.785504
  0
VERTEX
  8
LAYER_1
 62
    39
  6
CONTINUOUS
 10
-0.163004
 20
-0.761504
  0
VERTEX
  8
LAYER_1
 62
    39
  6
CONTINUOUS
 10
-0.162004
 20
-0.763504
  0
VERTEX
  8
LAYER_1
 62
    39
  6
CONTINUOUS
 10
-0.162004
 20
-0.762504
  0
VERTEX
  8
LAYER_1
 62
    39
  6
CONTINUOUS
 10
-0.188004
 20
-0.786504
  0
VERTEX
  8
LAYER_1
 62
    39
  6
CONTINUOUS
 10
-0.187004
 20
-0.785504
  0
VERTEX
  8
LAYER_1
 62
    39
  6
CONTINUOUS
 10
-0.162004
 20
-0.811504
  0
VERTEX
  8
LAYER_1
 62
    39
  6
CONTINUOUS
 10
-0.163004
 20
-0.812504
  0
VERTEX
  8
LAYER_1
 62
    39
  6
CONTINUOUS
 10
-0.189004
 20
-0.787504
  0
VERTEX
  8
LAYER_1
 62
    39
  6
CONTINUOUS
 10
-0.187004
 20
-0.785504
  0
VERTEX
  8
LAYER_1
 62
    39
  6
CONTINUOUS
 10
-0.188004
 20
-0.786504
  0
VERTEX
  8
LAYER_1
 62
    39
  6
CONTINUOUS
 10
-0.162004
 20
-0.812504
  0
VERTEX
  8
LAYER_1
 62
    39
  6
CONTINUOUS
 10
-0.163004
 20
-0.811504
  0
VERTEX
  8
LAYER_1
 62
    39
  6
CONTINUOUS
 10
-0.138004
 20
-0.785504
  0
VERTEX
  8
LAYER_1
 62
    39
  6
CONTINUOUS
 10
-0.137004
 20
-0.787504
  0
VERTEX
  8
LAYER_1
 62
    39
  6
CONTINUOUS
 10
-0.162004
 20
-0.812504
  0
VERTEX
  8
LAYER_1
 62
    39
  6
CONTINUOUS
 10
-0.163004
 20
-0.811504
  0
VERTEX
  8
LAYER_1
 62
    39
  6
CONTINUOUS
 10
-0.162004
 20
-0.812504
  0
VERTEX
  8
LAYER_1
 62
    39
  6
CONTINUOUS
 10
-0.137004
 20
-0.786504
  0
SEQEND
  8
0
  0
POLYLINE
  8
LAYER_1
 62
    39
  6
CONTINUOUS
 66
     1
 40
0.004390
 41
0.004390
  0
VERTEX
  8
LAYER_1
 62
    39
  6
CONTINUOUS
 10
-0.234004
 20
-0.782504
  0
VERTEX
  8
LAYER_1
 62
    39
  6
CONTINUOUS
 10
-0.287004
 20
-0.782504
  0
VERTEX
  8
LAYER_1
 62
    39
  6
CONTINUOUS
 10
-0.234004
 20
-0.782504
  0
VERTEX
  8
LAYER_1
 62
    39
  6
CONTINUOUS
 10
-0.215004
 20
-0.800504
  0
VERTEX
  8
LAYER_1
 62
    39
  6
CONTINUOUS
 10
-0.215004
 20
-0.819504
  0
VERTEX
  8
LAYER_1
 62
    39
  6
CONTINUOUS
 10
-0.234004
 20
-0.836504
  0
VERTEX
  8
LAYER_1
 62
    39
  6
CONTINUOUS
 10
-0.269004
 20
-0.836504
  0
VERTEX
  8
LAYER_1
 62
    39
  6
CONTINUOUS
 10
-0.287004
 20
-0.819504
  0
VERTEX
  8
LAYER_1
 62
    39
  6
CONTINUOUS
 10
-0.287004
 20
-0.765504
  0
VERTEX
  8
LAYER_1
 62
    39
  6
CONTINUOUS
 10
-0.252004
 20
-0.728504
  0
VERTEX
  8
LAYER_1
 62
    39
  6
CONTINUOUS
 10
-0.234004
 20
-0.728504
  0
SEQEND
  8
0
  0
POLYLINE
  8
LAYER_1
 62
    39
  6
CONTINUOUS
 66
     1
 40
0.004390
 41
0.004390
  0
VERTEX
  8
LAYER_1
 62
    39
  6
CONTINUOUS
 10
-0.336004
 20
-0.787504
  0
VERTEX
  8
LAYER_1
 62
    39
  6
CONTINUOUS
 10
-0.362004
 20
-0.812504
  0
VERTEX
  8
LAYER_1
 62
    39
  6
CONTINUOUS
 10
-0.363004
 20
-0.811504
  0
VERTEX
  8
LAYER_1
 62
    39
  6
CONTINUOUS
 10
-0.338004
 20
-0.785504
  0
VERTEX
  8
LAYER_1
 62
    39
  6
CONTINUOUS
 10
-0.336004
 20
-0.787504
  0
VERTEX
  8
LAYER_1
 62
    39
  6
CONTINUOUS
 10
-0.337004
 20
-0.786504
  0
VERTEX
  8
LAYER_1
 62
    39
  6
CONTINUOUS
 10
-0.363004
 20
-0.812504
  0
VERTEX
  8
LAYER_1
 62
    39
  6
CONTINUOUS
 10
-0.388004
 20
-0.787504
  0
VERTEX
  8
LAYER_1
 62
    39
  6
CONTINUOUS
 10
-0.387004
 20
-0.785504
  0
VERTEX
  8
LAYER_1
 62
    39
  6
CONTINUOUS
 10
-0.362004
 20
-0.811504
  0
VERTEX
  8
LAYER_1
 62
    39
  6
CONTINUOUS
 10
-0.363004
 20
-0.812504
  0
VERTEX
  8
LAYER_1
 62
    39
  6
CONTINUOUS
 10
-0.387004
 20
-0.786504
  0
VERTEX
  8
LAYER_1
 62
    39
  6
CONTINUOUS
 10
-0.388004
 20
-0.785504
  0
VERTEX
  8
LAYER_1
 62
    39
  6
CONTINUOUS
 10
-0.363004
 20
-0.761504
  0
VERTEX
  8
LAYER_1
 62
    39
  6
CONTINUOUS
 10
-0.362004
 20
-0.763504
  0
VERTEX
  8
LAYER_1
 62
    39
  6
CONTINUOUS
 10
-0.387004
 20
-0.787504
  0
VERTEX
  8
LAYER_1
 62
    39
  6
CONTINUOUS
 10
-0.388004
 20
-0.785504
  0
VERTEX
  8
LAYER_1
 62
    39
  6
CONTINUOUS
 10
-0.387004
 20
-0.786504
  0
VERTEX
  8
LAYER_1
 62
    39
  6
CONTINUOUS
 10
-0.363004
 20
-0.762504
  0
VERTEX
  8
LAYER_1
 62
    39
  6
CONTINUOUS
 10
-0.362004
 20
-0.761504
  0
VERTEX
  8
LAYER_1
 62
    39
  6
CONTINUOUS
 10
-0.336004
 20
-0.785504
  0
VERTEX
  8
LAYER_1
 62
    39
  6
CONTINUOUS
 10
-0.338004
 20
-0.787504
  0
VERTEX
  8
LAYER_1
 62
    39
  6
CONTINUOUS
 10
-0.363004
 20
-0.763504
  0
VERTEX
  8
LAYER_1
 62
    39
  6
CONTINUOUS
 10
-0.362004
 20
-0.761504
  0
VERTEX
  8
LAYER_1
 62
    39
  6
CONTINUOUS
 10
-0.363004
 20
-0.762504
  0
VERTEX
  8
LAYER_1
 62
    39
  6
CONTINUOUS
 10
-0.337004
 20
-0.786504
  0
SEQEND
  8
0
  0
POLYLINE
  8
LAYER_1
 62
    39
  6
CONTINUOUS
 66
     1
 40
0.004390
 41
0.004390
  0
VERTEX
  8
LAYER_1
 62
    39
  6
CONTINUOUS
 10
-0.512004
 20
-0.836504
  0
VERTEX
  8
LAYER_1
 62
    39
  6
CONTINUOUS
 10
-0.512004
 20
-0.728504
  0
SEQEND
  8
0
  0
POLYLINE
  8
LAYER_1
 62
    39
  6
CONTINUOUS
 66
     1
 40
0.004390
 41
0.004390
  0
VERTEX
  8
LAYER_1
 62
    39
  6
CONTINUOUS
 10
-0.441004
 20
-0.728504
  0
VERTEX
  8
LAYER_1
 62
    39
  6
CONTINUOUS
 10
-0.495004
 20
-0.782504
  0
VERTEX
  8
LAYER_1
 62
    39
  6
CONTINUOUS
 10
-0.512004
 20
-0.782504
  0
VERTEX
  8
LAYER_1
 62
    39
  6
CONTINUOUS
 10
-0.495004
 20
-0.782504
  0
VERTEX
  8
LAYER_1
 62
    39
  6
CONTINUOUS
 10
-0.441004
 20
-0.836504
  0
SEQEND
  8
0
  0
POLYLINE
  8
LAYER_1
 62
    39
  6
CONTINUOUS
 66
     1
 40
0.004390
 41
0.004390
  0
VERTEX
  8
LAYER_1
 62
    39
  6
CONTINUOUS
 10
-0.564004
 20
-0.787504
  0
VERTEX
  8
LAYER_1
 62
    39
  6
CONTINUOUS
 10
-0.588004
 20
-0.763504
  0
VERTEX
  8
LAYER_1
 62
    39
  6
CONTINUOUS
 10
-0.586004
 20
-0.761504
  0
VERTEX
  8
LAYER_1
 62
    39
  6
CONTINUOUS
 10
-0.562004
 20
-0.785504
  0
VERTEX
  8
LAYER_1
 62
    39
  6
CONTINUOUS
 10
-0.564004
 20
-0.787504
  0
VERTEX
  8
LAYER_1
 62
    39
  6
CONTINUOUS
 10
-0.563004
 20
-0.786504
  0
VERTEX
  8
LAYER_1
 62
    39
  6
CONTINUOUS
 10
-0.587004
 20
-0.762504
  0
VERTEX
  8
LAYER_1
 62
    39
  6
CONTINUOUS
 10
-0.586004
 20
-0.763504
  0
VERTEX
  8
LAYER_1
 62
    39
  6
CONTINUOUS
 10
-0.612004
 20
-0.787504
  0
VERTEX
  8
LAYER_1
 62
    39
  6
CONTINUOUS
 10
-0.613004
 20
-0.785504
  0
VERTEX
  8
LAYER_1
 62
    39
  6
CONTINUOUS
 10
-0.588004
 20
-0.761504
  0
VERTEX
  8
LAYER_1
 62
    39
  6
CONTINUOUS
 10
-0.586004
 20
-0.763504
  0
VERTEX
  8
LAYER_1
 62
    39
  6
CONTINUOUS
 10
-0.587004
 20
-0.762504
  0
VERTEX
  8
LAYER_1
 62
    39
  6
CONTINUOUS
 10
-0.613004
 20
-0.786504
  0
VERTEX
  8
LAYER_1
 62
    39
  6
CONTINUOUS
 10
-0.612004
 20
-0.785504
  0
VERTEX
  8
LAYER_1
 62
    39
  6
CONTINUOUS
 10
-0.586004
 20
-0.811504
  0
VERTEX
  8
LAYER_1
 62
    39
  6
CONTINUOUS
 10
-0.588004
 20
-0.812504
  0
VERTEX
  8
LAYER_1
 62
    39
  6
CONTINUOUS
 10
-0.613004
 20
-0.787504
  0
VERTEX
  8
LAYER_1
 62
    39
  6
CONTINUOUS
 10
-0.612004
 20
-0.785504
  0
VERTEX
  8
LAYER_1
 62
    39
  6
CONTINUOUS
 10
-0.613004
 20
-0.786504
  0
VERTEX
  8
LAYER_1
 62
    39
  6
CONTINUOUS
 10
-0.587004
 20
-0.812504
  0
VERTEX
  8
LAYER_1
 62
    39
  6
CONTINUOUS
 10
-0.588004
 20
-0.811504
  0
VERTEX
  8
LAYER_1
 62
    39
  6
CONTINUOUS
 10
-0.564004
 20
-0.785504
  0
VERTEX
  8
LAYER_1
 62
    39
  6
CONTINUOUS
 10
-0.562004
 20
-0.787504
  0
VERTEX
  8
LAYER_1
 62
    39
  6
CONTINUOUS
 10
-0.586004
 20
-0.812504
  0
VERTEX
  8
LAYER_1
 62
    39
  6
CONTINUOUS
 10
-0.588004
 20
-0.811504
  0
VERTEX
  8
LAYER_1
 62
    39
  6
CONTINUOUS
 10
-0.587004
 20
-0.812504
  0
VERTEX
  8
LAYER_1
 62
    39
  6
CONTINUOUS
 10
-0.563004
 20
-0.786504
  0
SEQEND
  8
0
  0
POLYLINE
  8
LAYER_1
 62
    39
  6
CONTINUOUS
 66
     1
 40
0.004390
 41
0.004390
  0
VERTEX
  8
LAYER_1
 62
    39
  6
CONTINUOUS
 10
-0.658004
 20
-0.836504
  0
VERTEX
  8
LAYER_1
 62
    39
  6
CONTINUOUS
 10
-0.712004
 20
-0.728504
  0
VERTEX
  8
LAYER_1
 62
    39
  6
CONTINUOUS
 10
-0.658004
 20
-0.836504
  0
VERTEX
  8
LAYER_1
 62
    39
  6
CONTINUOUS
 10
-0.604004
 20
-0.728504
  0
SEQEND
  8
0
  0
POLYLINE
  8
LAYER_1
 62
    39
  6
CONTINUOUS
 66
     1
 40
0.004390
 41
0.004390
  0
VERTEX
  8
LAYER_1
 62
    39
  6
CONTINUOUS
 10
-0.613004
 20
-0.890504
  0
VERTEX
  8
LAYER_1
 62
    39
  6
CONTINUOUS
 10
-0.613004
 20
-0.961504
  0
VERTEX
  8
LAYER_1
 62
    39
  6
CONTINUOUS
 10
-0.613004
 20
-0.890504
  0
VERTEX
  8
LAYER_1
 62
    39
  6
CONTINUOUS
 10
-0.576004
 20
-0.890504
  0
VERTEX
  8
LAYER_1
 62
    39
  6
CONTINUOUS
 10
-0.565004
 20
-0.901504
  0
VERTEX
  8
LAYER_1
 62
    39
  6
CONTINUOUS
 10
-0.565004
 20
-0.913504
  0
VERTEX
  8
LAYER_1
 62
    39
  6
CONTINUOUS
 10
-0.576004
 20
-0.925504
  0
VERTEX
  8
LAYER_1
 62
    39
  6
CONTINUOUS
 10
-0.613004
 20
-0.925504
  0
VERTEX
  8
LAYER_1
 62
    39
  6
CONTINUOUS
 10
-0.600004
 20
-0.925504
  0
VERTEX
  8
LAYER_1
 62
    39
  6
CONTINUOUS
 10
-0.565004
 20
-0.961504
  0
SEQEND
  8
0
  0
POLYLINE
  8
LAYER_1
 62
    39
  6
CONTINUOUS
 66
     1
 40
0.004390
 41
0.004390
  0
VERTEX
  8
LAYER_1
 62
    39
  6
CONTINUOUS
 10
-0.540004
 20
-0.938504
  0
VERTEX
  8
LAYER_1
 62
    39
  6
CONTINUOUS
 10
-0.540004
 20
-0.961504
  0
VERTEX
  8
LAYER_1
 62
    39
  6
CONTINUOUS
 10
-0.540004
 20
-0.938504
  0
VERTEX
  8
LAYER_1
 62
    39
  6
CONTINUOUS
 10
-0.516004
 20
-0.890504
  0
VERTEX
  8
LAYER_1
 62
    39
  6
CONTINUOUS
 10
-0.493004
 20
-0.938504
  0
VERTEX
  8
LAYER_1
 62
    39
  6
CONTINUOUS
 10
-0.540004
 20
-0.938504
  0
VERTEX
  8
LAYER_1
 62
    39
  6
CONTINUOUS
 10
-0.493004
 20
-0.938504
  0
VERTEX
  8
LAYER_1
 62
    39
  6
CONTINUOUS
 10
-0.493004
 20
-0.961504
  0
SEQEND
  8
0
  0
POLYLINE
  8
LAYER_1
 62
    39
  6
CONTINUOUS
 66
     1
 40
0.004390
 41
0.004390
  0
VERTEX
  8
LAYER_1
 62
    39
  6
CONTINUOUS
 10
-0.468004
 20
-0.961504
  0
VERTEX
  8
LAYER_1
 62
    39
  6
CONTINUOUS
 10
-0.433004
 20
-0.961504
  0
VERTEX
  8
LAYER_1
 62
    39
  6
CONTINUOUS
 10
-0.421004
 20
-0.950504
  0
VERTEX
  8
LAYER_1
 62
    39
  6
CONTINUOUS
 10
-0.421004
 20
-0.901504
  0
VERTEX
  8
LAYER_1
 62
    39
  6
CONTINUOUS
 10
-0.433004
 20
-0.890504
  0
VERTEX
  8
LAYER_1
 62
    39
  6
CONTINUOUS
 10
-0.468004
 20
-0.890504
  0
VERTEX
  8
LAYER_1
 62
    39
  6
CONTINUOUS
 10
-0.456004
 20
-0.890504
  0
VERTEX
  8
LAYER_1
 62
    39
  6
CONTINUOUS
 10
-0.456004
 20
-0.961504
  0
SEQEND
  8
0
  0
POLYLINE
  8
LAYER_1
 62
    39
  6
CONTINUOUS
 66
     1
 40
0.004390
 41
0.004390
  0
VERTEX
  8
LAYER_1
 62
    39
  6
CONTINUOUS
 10
-0.396004
 20
-0.961504
  0
VERTEX
  8
LAYER_1
 62
    39
  6
CONTINUOUS
 10
-0.385004
 20
-0.961504
  0
VERTEX
  8
LAYER_1
 62
    39
  6
CONTINUOUS
 10
-0.385004
 20
-0.890504
  0
VERTEX
  8
LAYER_1
 62
    39
  6
CONTINUOUS
 10
-0.396004
 20
-0.890504
  0
VERTEX
  8
LAYER_1
 62
    39
  6
CONTINUOUS
 10
-0.373004
 20
-0.890504
  0
VERTEX
  8
LAYER_1
 62
    39
  6
CONTINUOUS
 10
-0.385004
 20
-0.890504
  0
VERTEX
  8
LAYER_1
 62
    39
  6
CONTINUOUS
 10
-0.385004
 20
-0.961504
  0
VERTEX
  8
LAYER_1
 62
    39
  6
CONTINUOUS
 10
-0.373004
 20
-0.961504
  0
SEQEND
  8
0
  0
POLYLINE
  8
LAYER_1
 62
    39
  6
CONTINUOUS
 66
     1
 40
0.004390
 41
0.004390
  0
VERTEX
  8
LAYER_1
 62
    39
  6
CONTINUOUS
 10
-0.348004
 20
-0.890504
  0
VERTEX
  8
LAYER_1
 62
    39
  6
CONTINUOUS
 10
-0.348004
 20
-0.961504
  0
VERTEX
  8
LAYER_1
 62
    39
  6
CONTINUOUS
 10
-0.348004
 20
-0.890504
  0
VERTEX
  8
LAYER_1
 62
    39
  6
CONTINUOUS
 10
-0.301004
 20
-0.890504
  0
VERTEX
  8
LAYER_1
 62
    39
  6
CONTINUOUS
 10
-0.301004
 20
-0.961504
  0
VERTEX
  8
LAYER_1
 62
    39
  6
CONTINUOUS
 10
-0.348004
 20
-0.961504
  0
VERTEX
  8
LAYER_1
 62
    39
  6
CONTINUOUS
 10
-0.301004
 20
-0.961504
  0
SEQEND
  8
0
  0
POLYLINE
  8
LAYER_1
 62
    39
  6
CONTINUOUS
 66
     1
 40
0.004390
 41
0.004390
  0
VERTEX
  8
LAYER_1
 62
    39
  6
CONTINUOUS
 10
-0.204004
 20
-0.890504
  0
VERTEX
  8
LAYER_1
 62
    39
  6
CONTINUOUS
 10
-0.204004
 20
-0.961504
  0
VERTEX
  8
LAYER_1
 62
    39
  6
CONTINUOUS
 10
-0.204004
 20
-0.890504
  0
VERTEX
  8
LAYER_1
 62
    39
  6
CONTINUOUS
 10
-0.168004
 20
-0.890504
  0
VERTEX
  8
LAYER_1
 62
    39
  6
CONTINUOUS
 10
-0.156004
 20
-0.901504
  0
VERTEX
  8
LAYER_1
 62
    39
  6
CONTINUOUS
 10
-0.156004
 20
-0.913504
  0
VERTEX
  8
LAYER_1
 62
    39
  6
CONTINUOUS
 10
-0.168004
 20
-0.925504
  0
VERTEX
  8
LAYER_1
 62
    39
  6
CONTINUOUS
 10
-0.204004
 20
-0.925504
  0
VERTEX
  8
LAYER_1
 62
    39
  6
CONTINUOUS
 10
-0.193004
 20
-0.925504
  0
VERTEX
  8
LAYER_1
 62
    39
  6
CONTINUOUS
 10
-0.156004
 20
-0.961504
  0
SEQEND
  8
0
  0
POLYLINE
  8
LAYER_1
 62
    39
  6
CONTINUOUS
 66
     1
 40
0.004390
 41
0.004390
  0
VERTEX
  8
LAYER_1
 62
    39
  6
CONTINUOUS
 10
-0.133004
 20
-0.890504
  0
VERTEX
  8
LAYER_1
 62
    39
  6
CONTINUOUS
 10
-0.133004
 20
-0.961504
  0
VERTEX
  8
LAYER_1
 62
    39
  6
CONTINUOUS
 10
-0.133004
 20
-0.890504
  0
VERTEX
  8
LAYER_1
 62
    39
  6
CONTINUOUS
 10
-0.084004
 20
-0.890504
  0
VERTEX
  8
LAYER_1
 62
    39
  6
CONTINUOUS
 10
-0.133004
 20
-0.890504
  0
VERTEX
  8
LAYER_1
 62
    39
  6
CONTINUOUS
 10
-0.133004
 20
-0.925504
  0
VERTEX
  8
LAYER_1
 62
    39
  6
CONTINUOUS
 10
-0.109004
 20
-0.925504
  0
VERTEX
  8
LAYER_1
 62
    39
  6
CONTINUOUS
 10
-0.133004
 20
-0.925504
  0
VERTEX
  8
LAYER_1
 62
    39
  6
CONTINUOUS
 10
-0.133004
 20
-0.961504
  0
VERTEX
  8
LAYER_1
 62
    39
  6
CONTINUOUS
 10
-0.084004
 20
-0.961504
  0
SEQEND
  8
0
  0
POLYLINE
  8
LAYER_1
 62
    39
  6
CONTINUOUS
 66
     1
 40
0.004390
 41
0.004390
  0
VERTEX
  8
LAYER_1
 62
    39
  6
CONTINUOUS
 10
-0.061004
 20
-0.950504
  0
VERTEX
  8
LAYER_1
 62
    39
  6
CONTINUOUS
 10
-0.049004
 20
-0.961504
  0
VERTEX
  8
LAYER_1
 62
    39
  6
CONTINUOUS
 10
-0.024004
 20
-0.961504
  0
VERTEX
  8
LAYER_1
 62
    39
  6
CONTINUOUS
 10
-0.012004
 20
-0.950504
  0
VERTEX
  8
LAYER_1
 62
    39
  6
CONTINUOUS
 10
-0.061004
 20
-0.901504
  0
VERTEX
  8
LAYER_1
 62
    39
  6
CONTINUOUS
 10
-0.049004
 20
-0.890504
  0
VERTEX
  8
LAYER_1
 62
    39
  6
CONTINUOUS
 10
-0.024004
 20
-0.890504
  0
VERTEX
  8
LAYER_1
 62
    39
  6
CONTINUOUS
 10
-0.012004
 20
-0.901504
  0
SEQEND
  8
0
  0
POLYLINE
  8
LAYER_1
 62
    39
  6
CONTINUOUS
 66
     1
 40
0.004390
 41
0.004390
  0
VERTEX
  8
LAYER_1
 62
    39
  6
CONTINUOUS
 10
0.010996
 20
-0.890504
  0
VERTEX
  8
LAYER_1
 62
    39
  6
CONTINUOUS
 10
0.010996
 20
-0.961504
  0
VERTEX
  8
LAYER_1
 62
    39
  6
CONTINUOUS
 10
0.010996
 20
-0.890504
  0
VERTEX
  8
LAYER_1
 62
    39
  6
CONTINUOUS
 10
0.058996
 20
-0.890504
  0
VERTEX
  8
LAYER_1
 62
    39
  6
CONTINUOUS
 10
0.010996
 20
-0.890504
  0
VERTEX
  8
LAYER_1
 62
    39
  6
CONTINUOUS
 10
0.010996
 20
-0.925504
  0
VERTEX
  8
LAYER_1
 62
    39
  6
CONTINUOUS
 10
0.035996
 20
-0.925504
  0
VERTEX
  8
LAYER_1
 62
    39
  6
CONTINUOUS
 10
0.010996
 20
-0.925504
  0
VERTEX
  8
LAYER_1
 62
    39
  6
CONTINUOUS
 10
0.010996
 20
-0.961504
  0
VERTEX
  8
LAYER_1
 62
    39
  6
CONTINUOUS
 10
0.058996
 20
-0.961504
  0
SEQEND
  8
0
  0
POLYLINE
  8
LAYER_1
 62
    39
  6
CONTINUOUS
 66
     1
 40
0.004390
 41
0.004390
  0
VERTEX
  8
LAYER_1
 62
    39
  6
CONTINUOUS
 10
0.083996
 20
-0.938504
  0
VERTEX
  8
LAYER_1
 62
    39
  6
CONTINUOUS
 10
0.083996
 20
-0.961504
  0
VERTEX
  8
LAYER_1
 62
    39
  6
CONTINUOUS
 10
0.083996
 20
-0.938504
  0
VERTEX
  8
LAYER_1
 62
    39
  6
CONTINUOUS
 10
0.107996
 20
-0.890504
  0
VERTEX
  8
LAYER_1
 62
    39
  6
CONTINUOUS
 10
0.130996
 20
-0.938504
  0
VERTEX
  8
LAYER_1
 62
    39
  6
CONTINUOUS
 10
0.083996
 20
-0.938504
  0
VERTEX
  8
LAYER_1
 62
    39
  6
CONTINUOUS
 10
0.130996
 20
-0.938504
  0
VERTEX
  8
LAYER_1
 62
    39
  6
CONTINUOUS
 10
0.130996
 20
-0.961504
  0
SEQEND
  8
0
  0
POLYLINE
  8
LAYER_1
 62
    39
  6
CONTINUOUS
 66
     1
 40
0.004390
 41
0.004390
  0
VERTEX
  8
LAYER_1
 62
    39
  6
CONTINUOUS
 10
0.155996
 20
-0.890504
  0
VERTEX
  8
LAYER_1
 62
    39
  6
CONTINUOUS
 10
0.155996
 20
-0.961504
  0
VERTEX
  8
LAYER_1
 62
    39
  6
CONTINUOUS
 10
0.155996
 20
-0.890504
  0
VERTEX
  8
LAYER_1
 62
    39
  6
CONTINUOUS
 10
0.190996
 20
-0.890504
  0
VERTEX
  8
LAYER_1
 62
    39
  6
CONTINUOUS
 10
0.202996
 20
-0.901504
  0
VERTEX
  8
LAYER_1
 62
    39
  6
CONTINUOUS
 10
0.202996
 20
-0.913504
  0
VERTEX
  8
LAYER_1
 62
    39
  6
CONTINUOUS
 10
0.190996
 20
-0.925504
  0
VERTEX
  8
LAYER_1
 62
    39
  6
CONTINUOUS
 10
0.155996
 20
-0.925504
  0
VERTEX
  8
LAYER_1
 62
    39
  6
CONTINUOUS
 10
0.167996
 20
-0.925504
  0
VERTEX
  8
LAYER_1
 62
    39
  6
CONTINUOUS
 10
0.202996
 20
-0.961504
  0
SEQEND
  8
0
  0
POLYLINE
  8
LAYER_1
 62
    39
  6
CONTINUOUS
 66
     1
 40
0.004390
 41
0.004390
 70
     1
  0
VERTEX
  8
LAYER_1
 62
    39
  6
CONTINUOUS
 10
-0.337004
 20
-0.536504
  0
VERTEX
  8
LAYER_1
 62
    39
  6
CONTINUOUS
 10
-0.337004
 20
-0.441504
  0
VERTEX
  8
LAYER_1
 62
    39
  6
CONTINUOUS
 10
-0.273004
 20
-0.441504
  0
VERTEX
  8
LAYER_1
 62
    39
  6
CONTINUOUS
 10
-0.337004
 20
-0.441504
  0
VERTEX
  8
LAYER_1
 62
    39
  6
CONTINUOUS
 10
-0.337004
 20
-0.488504
  0
VERTEX
  8
LAYER_1
 62
    39
  6
CONTINUOUS
 10
-0.306004
 20
-0.488504
  0
VERTEX
  8
LAYER_1
 62
    39
  6
CONTINUOUS
 10
-0.337004
 20
-0.488504
  0
SEQEND
  8
0
  0
POLYLINE
  8
LAYER_1
 62
    39
  6
CONTINUOUS
 66
     1
 40
0.004390
 41
0.004390
  0
VERTEX
  8
LAYER_1
 62
    39
  6
CONTINUOUS
 10
-0.225004
 20
-0.536504
  0
VERTEX
  8
LAYER_1
 62
    39
  6
CONTINUOUS
 10
-0.242004
 20
-0.536504
  0
VERTEX
  8
LAYER_1
 62
    39
  6
CONTINUOUS
 10
-0.225004
 20
-0.536504
  0
VERTEX
  8
LAYER_1
 62
    39
  6
CONTINUOUS
 10
-0.225004
 20
-0.441504
  0
VERTEX
  8
LAYER_1
 62
    39
  6
CONTINUOUS
 10
-0.242004
 20
-0.441504
  0
VERTEX
  8
LAYER_1
 62
    39
  6
CONTINUOUS
 10
-0.209004
 20
-0.441504
  0
VERTEX
  8
LAYER_1
 62
    39
  6
CONTINUOUS
 10
-0.225004
 20
-0.441504
  0
VERTEX
  8
LAYER_1
 62
    39
  6
CONTINUOUS
 10
-0.225004
 20
-0.536504
  0
VERTEX
  8
LAYER_1
 62
    39
  6
CONTINUOUS
 10
-0.209004
 20
-0.536504
  0
SEQEND
  8
0
  0
POLYLINE
  8
LAYER_1
 62
    39
  6
CONTINUOUS
 66
     1
 40
0.004390
 41
0.004390
  0
VERTEX
  8
LAYER_1
 62
    39
  6
CONTINUOUS
 10
-0.114004
 20
-0.488504
  0
VERTEX
  8
LAYER_1
 62
    39
  6
CONTINUOUS
 10
-0.130004
 20
-0.488504
  0
VERTEX
  8
LAYER_1
 62
    39
  6
CONTINUOUS
 10
-0.114004
 20
-0.488504
  0
VERTEX
  8
LAYER_1
 62
    39
  6
CONTINUOUS
 10
-0.114004
 20
-0.536504
  0
VERTEX
  8
LAYER_1
 62
    39
  6
CONTINUOUS
 10
-0.161004
 20
-0.536504
  0
VERTEX
  8
LAYER_1
 62
    39
  6
CONTINUOUS
 10
-0.178004
 20
-0.521504
  0
VERTEX
  8
LAYER_1
 62
    39
  6
CONTINUOUS
 10
-0.178004
 20
-0.457504
  0
VERTEX
  8
LAYER_1
 62
    39
  6
CONTINUOUS
 10
-0.161004
 20
-0.441504
  0
VERTEX
  8
LAYER_1
 62
    39
  6
CONTINUOUS
 10
-0.114004
 20
-0.441504
  0
SEQEND
  8
0
  0
POLYLINE
  8
LAYER_1
 62
    39
  6
CONTINUOUS
 66
     1
 40
0.004390
 41
0.004390
  0
VERTEX
  8
LAYER_1
 62
    39
  6
CONTINUOUS
 10
0.013996
 20
-0.457504
  0
VERTEX
  8
LAYER_1
 62
    39
  6
CONTINUOUS
 10
0.030996
 20
-0.441504
  0
VERTEX
  8
LAYER_1
 62
    39
  6
CONTINUOUS
 10
0.030996
 20
-0.536504
  0
VERTEX
  8
LAYER_1
 62
    39
  6
CONTINUOUS
 10
0.013996
 20
-0.536504
  0
VERTEX
  8
LAYER_1
 62
    39
  6
CONTINUOUS
 10
0.046996
 20
-0.536504
  0
SEQEND
  8
0
  0
POLYLINE
  8
LAYER_1
 62
    39
  6
CONTINUOUS
 66
     1
 40
0.004390
 41
0.004390
  0
VERTEX
  8
LAYER_1
 62
    39
  6
CONTINUOUS
 10
0.077996
 20
-0.457504
  0
VERTEX
  8
LAYER_1
 62
    39
  6
CONTINUOUS
 10
0.094996
 20
-0.441504
  0
VERTEX
  8
LAYER_1
 62
    39
  6
CONTINUOUS
 10
0.094996
 20
-0.536504
  0
VERTEX
  8
LAYER_1
 62
    39
  6
CONTINUOUS
 10
0.077996
 20
-0.536504
  0
VERTEX
  8
LAYER_1
 62
    39
  6
CONTINUOUS
 10
0.110996
 20
-0.536504
  0
SEQEND
  8
0
  0
POLYLINE
  8
LAYER_1
 62
    39
  6
CONTINUOUS
 66
     1
 40
0.004390
 41
0.004390
  0
VERTEX
  8
LAYER_1
 62
    39
  6
CONTINUOUS
 10
0.141996
 20
-0.536504
  0
VERTEX
  8
LAYER_1
 62
    39
  6
CONTINUOUS
 10
0.141996
 20
-0.505504
  0
VERTEX
  8
LAYER_1
 62
    39
  6
CONTINUOUS
 10
0.174996
 20
-0.441504
  0
VERTEX
  8
LAYER_1
 62
    39
  6
CONTINUOUS
 10
0.206996
 20
-0.505504
  0
VERTEX
  8
LAYER_1
 62
    39
  6
CONTINUOUS
 10
0.141996
 20
-0.505504
  0
VERTEX
  8
LAYER_1
 62
    39
  6
CONTINUOUS
 10
0.206996
 20
-0.505504
  0
VERTEX
  8
LAYER_1
 62
    39
  6
CONTINUOUS
 10
0.206996
 20
-0.536504
  0
SEQEND
  8
0
  0
POLYLINE
  8
LAYER_1
 62
    39
  6
CONTINUOUS
 66
     1
 40
0.004390
 41
0.004390
  0
VERTEX
  8
LAYER_1
 62
    39
  6
CONTINUOUS
 10
0.061996
 20
-0.036504
  0
VERTEX
  8
LAYER_1
 62
    39
  6
CONTINUOUS
 10
0.061996
 20
0.163496
  0
SEQEND
  8
0
  0
POLYLINE
  8
LAYER_1
 62
    39
  6
CONTINUOUS
 66
     1
 40
0.004390
 41
0.004390
 70
     1
  0
VERTEX
  8
LAYER_1
 62
    39
  6
CONTINUOUS
 10
0.087996
 20
0.138496
  0
VERTEX
  8
LAYER_1
 62
    39
  6
CONTINUOUS
 10
0.136996
 20
0.187496
  0
VERTEX
  8
LAYER_1
 62
    39
  6
CONTINUOUS
 10
0.162996
 20
0.213496
  0
VERTEX
  8
LAYER_1
 62
    39
  6
CONTINUOUS
 10
0.212996
 20
0.213496
  0
VERTEX
  8
LAYER_1
 62
    39
  6
CONTINUOUS
 10
0.287996
 20
0.138496
  0
VERTEX
  8
LAYER_1
 62
    39
  6
CONTINUOUS
 10
0.287996
 20
0.038496
  0
VERTEX
  8
LAYER_1
 62
    39
  6
CONTINUOUS
 10
0.087996
 20
0.038496
  0
VERTEX
  8
LAYER_1
 62
    39
  6
CONTINUOUS
 10
0.087996
 20
0.088496
  0
SEQEND
  8
0
  0
POLYLINE
  8
LAYER_1
 62
    39
  6
CONTINUOUS
 66
     1
 40
0.004390
 41
0.004390
 70
     1
  0
VERTEX
  8
LAYER_1
 62
    39
  6
CONTINUOUS
 10
0.061996
 20
0.163496
  0
VERTEX
  8
LAYER_1
 62
    39
  6
CONTINUOUS
 10
0.061996
 20
0.167496
  0
VERTEX
  8
LAYER_1
 62
    39
  6
CONTINUOUS
 10
0.060996
 20
0.172496
  0
VERTEX
  8
LAYER_1
 62
    39
  6
CONTINUOUS
 10
0.059996
 20
0.177496
  0
VERTEX
  8
LAYER_1
 62
    39
  6
CONTINUOUS
 10
0.057996
 20
0.182496
  0
VERTEX
  8
LAYER_1
 62
    39
  6
CONTINUOUS
 10
0.055996
 20
0.187496
  0
VERTEX
  8
LAYER_1
 62
    39
  6
CONTINUOUS
 10
0.052996
 20
0.191496
  0
VERTEX
  8
LAYER_1
 62
    39
  6
CONTINUOUS
 10
0.049996
 20
0.195496
  0
VERTEX
  8
LAYER_1
 62
    39
  6
CONTINUOUS
 10
0.046996
 20
0.199496
  0
VERTEX
  8
LAYER_1
 62
    39
  6
CONTINUOUS
 10
0.042996
 20
0.202496
  0
VERTEX
  8
LAYER_1
 62
    39
  6
CONTINUOUS
 10
0.038996
 20
0.205496
  0
VERTEX
  8
LAYER_1
 62
    39
  6
CONTINUOUS
 10
0.034996
 20
0.208496
  0
VERTEX
  8
LAYER_1
 62
    39
  6
CONTINUOUS
 10
0.029996
 20
0.210496
  0
VERTEX
  8
LAYER_1
 62
    39
  6
CONTINUOUS
 10
0.024996
 20
0.211496
  0
VERTEX
  8
LAYER_1
 62
    39
  6
CONTINUOUS
 10
0.019996
 20
0.212496
  0
VERTEX
  8
LAYER_1
 62
    39
  6
CONTINUOUS
 10
0.014996
 20
0.213496
  0
VERTEX
  8
LAYER_1
 62
    39
  6
CONTINUOUS
 10
0.009996
 20
0.213496
  0
VERTEX
  8
LAYER_1
 62
    39
  6
CONTINUOUS
 10
0.004996
 20
0.212496
  0
VERTEX
  8
LAYER_1
 62
    39
  6
CONTINUOUS
 10
-0.000004
 20
0.211496
  0
VERTEX
  8
LAYER_1
 62
    39
  6
CONTINUOUS
 10
-0.005004
 20
0.210496
  0
VERTEX
  8
LAYER_1
 62
    39
  6
CONTINUOUS
 10
-0.010004
 20
0.208496
  0
VERTEX
  8
LAYER_1
 62
    39
  6
CONTINUOUS
 10
-0.013004
 20
0.205496
  0
VERTEX
  8
LAYER_1
 62
    39
  6
CONTINUOUS
 10
-0.018004
 20
0.202496
  0
VERTEX
  8
LAYER_1
 62
    39
  6
CONTINUOUS
 10
-0.022004
 20
0.199496
  0
VERTEX
  8
LAYER_1
 62
    39
  6
CONTINUOUS
 10
-0.025004
 20
0.195496
  0
VERTEX
  8
LAYER_1
 62
    39
  6
CONTINUOUS
 10
-0.028004
 20
0.191496
  0
VERTEX
  8
LAYER_1
 62
    39
  6
CONTINUOUS
 10
-0.031004
 20
0.187496
  0
VERTEX
  8
LAYER_1
 62
    39
  6
CONTINUOUS
 10
-0.033004
 20
0.182496
  0
VERTEX
  8
LAYER_1
 62
    39
  6
CONTINUOUS
 10
-0.035004
 20
0.177496
  0
VERTEX
  8
LAYER_1
 62
    39
  6
CONTINUOUS
 10
-0.036004
 20
0.172496
  0
VERTEX
  8
LAYER_1
 62
    39
  6
CONTINUOUS
 10
-0.037004
 20
0.167496
  0
VERTEX
  8
LAYER_1
 62
    39
  6
CONTINUOUS
 10
-0.037004
 20
0.163496
  0
SEQEND
  8
0
  0
POLYLINE
  8
LAYER_1
 62
    39
  6
CONTINUOUS
 66
     1
 40
0.004390
 41
0.004390
  0
VERTEX
  8
LAYER_1
 62
    39
  6
CONTINUOUS
 10
-0.037004
 20
0.163496
  0
VERTEX
  8
LAYER_1
 62
    39
  6
CONTINUOUS
 10
-0.037004
 20
-0.036504
  0
SEQEND
  8
0
  0
POLYLINE
  8
LAYER_1
 62
    39
  6
CONTINUOUS
 66
     1
 40
0.004390
 41
0.004390
  0
VERTEX
  8
LAYER_1
 62
    39
  6
CONTINUOUS
 10
-0.037004
 20
-0.036504
  0
VERTEX
  8
LAYER_1
 62
    39
  6
CONTINUOUS
 10
-0.037004
 20
-0.041504
  0
VERTEX
  8
LAYER_1
 62
    39
  6
CONTINUOUS
 10
-0.036004
 20
-0.046504
  0
VERTEX
  8
LAYER_1
 62
    39
  6
CONTINUOUS
 10
-0.035004
 20
-0.051504
  0
VERTEX
  8
LAYER_1
 62
    39
  6
CONTINUOUS
 10
-0.033004
 20
-0.056504
  0
VERTEX
  8
LAYER_1
 62
    39
  6
CONTINUOUS
 10
-0.031004
 20
-0.061504
  0
VERTEX
  8
LAYER_1
 62
    39
  6
CONTINUOUS
 10
-0.028004
 20
-0.065504
  0
VERTEX
  8
LAYER_1
 62
    39
  6
CONTINUOUS
 10
-0.025004
 20
-0.069504
  0
VERTEX
  8
LAYER_1
 62
    39
  6
CONTINUOUS
 10
-0.022004
 20
-0.073504
  0
VERTEX
  8
LAYER_1
 62
    39
  6
CONTINUOUS
 10
-0.018004
 20
-0.076504
  0
VERTEX
  8
LAYER_1
 62
    39
  6
CONTINUOUS
 10
-0.013004
 20
-0.079504
  0
VERTEX
  8
LAYER_1
 62
    39
  6
CONTINUOUS
 10
-0.010004
 20
-0.082504
  0
VERTEX
  8
LAYER_1
 62
    39
  6
CONTINUOUS
 10
-0.005004
 20
-0.084504
  0
VERTEX
  8
LAYER_1
 62
    39
  6
CONTINUOUS
 10
-0.000004
 20
-0.085504
  0
VERTEX
  8
LAYER_1
 62
    39
  6
CONTINUOUS
 10
0.004996
 20
-0.086504
  0
VERTEX
  8
LAYER_1
 62
    39
  6
CONTINUOUS
 10
0.009996
 20
-0.086504
  0
VERTEX
  8
LAYER_1
 62
    39
  6
CONTINUOUS
 10
0.014996
 20
-0.086504
  0
VERTEX
  8
LAYER_1
 62
    39
  6
CONTINUOUS
 10
0.019996
 20
-0.086504
  0
VERTEX
  8
LAYER_1
 62
    39
  6
CONTINUOUS
 10
0.024996
 20
-0.085504
  0
VERTEX
  8
LAYER_1
 62
    39
  6
CONTINUOUS
 10
0.029996
 20
-0.084504
  0
VERTEX
  8
LAYER_1
 62
    39
  6
CONTINUOUS
 10
0.034996
 20
-0.082504
  0
VERTEX
  8
LAYER_1
 62
    39
  6
CONTINUOUS
 10
0.038996
 20
-0.079504
  0
VERTEX
  8
LAYER_1
 62
    39
  6
CONTINUOUS
 10
0.042996
 20
-0.076504
  0
VERTEX
  8
LAYER_1
 62
    39
  6
CONTINUOUS
 10
0.046996
 20
-0.073504
  0
VERTEX
  8
LAYER_1
 62
    39
  6
CONTINUOUS
 10
0.049996
 20
-0.069504
  0
VERTEX
  8
LAYER_1
 62
    39
  6
CONTINUOUS
 10
0.052996
 20
-0.065504
  0
VERTEX
  8
LAYER_1
 62
    39
  6
CONTINUOUS
 10
0.055996
 20
-0.061504
  0
VERTEX
  8
LAYER_1
 62
    39
  6
CONTINUOUS
 10
0.057996
 20
-0.056504
  0
VERTEX
  8
LAYER_1
 62
    39
  6
CONTINUOUS
 10
0.059996
 20
-0.051504
  0
VERTEX
  8
LAYER_1
 62
    39
  6
CONTINUOUS
 10
0.060996
 20
-0.046504
  0
VERTEX
  8
LAYER_1
 62
    39
  6
CONTINUOUS
 10
0.061996
 20
-0.041504
  0
VERTEX
  8
LAYER_1
 62
    39
  6
CONTINUOUS
 10
0.061996
 20
-0.036504
  0
SEQEND
  8
0
  0
POLYLINE
  8
LAYER_1
 62
    39
  6
CONTINUOUS
 66
     1
 40
0.004390
 41
0.004390
  0
VERTEX
  8
LAYER_1
 62
    39
  6
CONTINUOUS
 10
0.042996
 20
0.028496
  0
VERTEX
  8
LAYER_1
 62
    39
  6
CONTINUOUS
 10
0.032996
 20
0.038496
  0
VERTEX
  8
LAYER_1
 62
    39
  6
CONTINUOUS
 10
0.042996
 20
0.028496
  0
VERTEX
  8
LAYER_1
 62
    39
  6
CONTINUOUS
 10
0.042996
 20
0.008496
  0
VERTEX
  8
LAYER_1
 62
    39
  6
CONTINUOUS
 10
0.032996
 20
-0.002504
  0
VERTEX
  8
LAYER_1
 62
    39
  6
CONTINUOUS
 10
-0.008004
 20
-0.002504
  0
VERTEX
  8
LAYER_1
 62
    39
  6
CONTINUOUS
 10
-0.017004
 20
0.008496
  0
VERTEX
  8
LAYER_1
 62
    39
  6
CONTINUOUS
 10
-0.017004
 20
0.028496
  0
VERTEX
  8
LAYER_1
 62
    39
  6
CONTINUOUS
 10
-0.008004
 20
0.038496
  0
SEQEND
  8
0
  0
POLYLINE
  8
LAYER_1
 62
    39
  6
CONTINUOUS
 66
     1
 40
0.004390
 41
0.004390
  0
VERTEX
  8
LAYER_1
 62
    39
  6
CONTINUOUS
 10
-0.008004
 20
0.057496
  0
VERTEX
  8
LAYER_1
 62
    39
  6
CONTINUOUS
 10
-0.017004
 20
0.067496
  0
VERTEX
  8
LAYER_1
 62
    39
  6
CONTINUOUS
 10
0.042996
 20
0.067496
  0
VERTEX
  8
LAYER_1
 62
    39
  6
CONTINUOUS
 10
0.042996
 20
0.057496
  0
VERTEX
  8
LAYER_1
 62
    39
  6
CONTINUOUS
 10
0.042996
 20
0.078496
  0
SEQEND
  8
0
  0
POLYLINE
  8
LAYER_1
 62
    39
  6
CONTINUOUS
 66
     1
 40
0.004390
 41
0.004390
  0
VERTEX
  8
LAYER_1
 62
    39
  6
CONTINUOUS
 10
0.032996
 20
0.098496
  0
VERTEX
  8
LAYER_1
 62
    39
  6
CONTINUOUS
 10
0.042996
 20
0.107496
  0
VERTEX
  8
LAYER_1
 62
    39
  6
CONTINUOUS
 10
0.032996
 20
0.098496
  0
VERTEX
  8
LAYER_1
 62
    39
  6
CONTINUOUS
 10
-0.008004
 20
0.098496
  0
VERTEX
  8
LAYER_1
 62
    39
  6
CONTINUOUS
 10
-0.017004
 20
0.107496
  0
VERTEX
  8
LAYER_1
 62
    39
  6
CONTINUOUS
 10
-0.017004
 20
0.117496
  0
VERTEX
  8
LAYER_1
 62
    39
  6
CONTINUOUS
 10
-0.008004
 20
0.127496
  0
VERTEX
  8
LAYER_1
 62
    39
  6
CONTINUOUS
 10
0.032996
 20
0.127496
  0
VERTEX
  8
LAYER_1
 62
    39
  6
CONTINUOUS
 10
0.042996
 20
0.117496
  0
VERTEX
  8
LAYER_1
 62
    39
  6
CONTINUOUS
 10
0.042996
 20
0.107496
  0
SEQEND
  8
0
  0
POLYLINE
  8
LAYER_1
 62
    39
  6
CONTINUOUS
 66
     1
 40
0.004390
 41
0.004390
  0
VERTEX
  8
LAYER_1
 62
    39
  6
CONTINUOUS
 10
-0.085004
 20
-0.002504
  0
VERTEX
  8
LAYER_1
 62
    39
  6
CONTINUOUS
 10
-0.118004
 20
-0.002504
  0
SEQEND
  8
0
  0
POLYLINE
  8
LAYER_1
 62
    39
  6
CONTINUOUS
 66
     1
 40
0.004390
 41
0.004390
  0
VERTEX
  8
LAYER_1
 62
    39
  6
CONTINUOUS
 10
-0.101004
 20
0.014496
  0
VERTEX
  8
LAYER_1
 62
    39
  6
CONTINUOUS
 10
-0.101004
 20
-0.018504
  0
SEQEND
  8
0
  0
POLYLINE
  8
LAYER_1
 62
    39
  6
CONTINUOUS
 66
     1
 40
0.004390
 41
0.004390
  0
VERTEX
  8
LAYER_1
 62
    39
  6
CONTINUOUS
 10
-0.133004
 20
-0.002504
  0
VERTEX
  8
LAYER_1
 62
    39
  6
CONTINUOUS
 10
-0.142004
 20
0.008496
  0
VERTEX
  8
LAYER_1
 62
    39
  6
CONTINUOUS
 10
-0.133004
 20
-0.002504
  0
VERTEX
  8
LAYER_1
 62
    39
  6
CONTINUOUS
 10
-0.133004
 20
-0.022504
  0
VERTEX
  8
LAYER_1
 62
    39
  6
CONTINUOUS
 10
-0.142004
 20
-0.031504
  0
VERTEX
  8
LAYER_1
 62
    39
  6
CONTINUOUS
 10
-0.183004
 20
-0.031504
  0
VERTEX
  8
LAYER_1
 62
    39
  6
CONTINUOUS
 10
-0.193004
 20
-0.022504
  0
VERTEX
  8
LAYER_1
 62
    39
  6
CONTINUOUS
 10
-0.193004
 20
-0.002504
  0
VERTEX
  8
LAYER_1
 62
    39
  6
CONTINUOUS
 10
-0.183004
 20
0.008496
  0
SEQEND
  8
0
  0
POLYLINE
  8
LAYER_1
 62
    39
  6
CONTINUOUS
 66
     1
 40
0.004390
 41
0.004390
  0
VERTEX
  8
LAYER_1
 62
    39
  6
CONTINUOUS
 10
-0.183004
 20
0.028496
  0
VERTEX
  8
LAYER_1
 62
    39
  6
CONTINUOUS
 10
-0.193004
 20
0.038496
  0
VERTEX
  8
LAYER_1
 62
    39
  6
CONTINUOUS
 10
-0.133004
 20
0.038496
  0
VERTEX
  8
LAYER_1
 62
    39
  6
CONTINUOUS
 10
-0.133004
 20
0.028496
  0
VERTEX
  8
LAYER_1
 62
    39
  6
CONTINUOUS
 10
-0.133004
 20
0.047496
  0
SEQEND
  8
0
  0
POLYLINE
  8
LAYER_1
 62
    39
  6
CONTINUOUS
 66
     1
 40
0.004390
 41
0.004390
  0
VERTEX
  8
LAYER_1
 62
    39
  6
CONTINUOUS
 10
-0.183004
 20
0.067496
  0
VERTEX
  8
LAYER_1
 62
    39
  6
CONTINUOUS
 10
-0.193004
 20
0.078496
  0
VERTEX
  8
LAYER_1
 62
    39
  6
CONTINUOUS
 10
-0.193004
 20
0.098496
  0
VERTEX
  8
LAYER_1
 62
    39
  6
CONTINUOUS
 10
-0.183004
 20
0.107496
  0
VERTEX
  8
LAYER_1
 62
    39
  6
CONTINUOUS
 10
-0.173004
 20
0.107496
  0
VERTEX
  8
LAYER_1
 62
    39
  6
CONTINUOUS
 10
-0.162004
 20
0.098496
  0
VERTEX
  8
LAYER_1
 62
    39
  6
CONTINUOUS
 10
-0.162004
 20
0.088496
  0
VERTEX
  8
LAYER_1
 62
    39
  6
CONTINUOUS
 10
-0.162004
 20
0.098496
  0
VERTEX
  8
LAYER_1
 62
    39
  6
CONTINUOUS
 10
-0.152004
 20
0.107496
  0
VERTEX
  8
LAYER_1
 62
    39
  6
CONTINUOUS
 10
-0.142004
 20
0.107496
  0
VERTEX
  8
LAYER_1
 62
    39
  6
CONTINUOUS
 10
-0.133004
 20
0.098496
  0
VERTEX
  8
LAYER_1
 62
    39
  6
CONTINUOUS
 10
-0.133004
 20
0.078496
  0
VERTEX
  8
LAYER_1
 62
    39
  6
CONTINUOUS
 10
-0.142004
 20
0.067496
  0
SEQEND
  8
0
  0
POLYLINE
  8
LAYER_1
 62
    39
  6
CONTINUOUS
 66
     1
 40
0.004390
 41
0.004390
 70
     1
  0
VERTEX
  8
LAYER_1
 62
    39
  6
CONTINUOUS
 10
-0.063004
 20
0.038496
  0
VERTEX
  8
LAYER_1
 62
    39
  6
CONTINUOUS
 10
-0.063004
 20
0.042496
  0
VERTEX
  8
LAYER_1
 62
    39
  6
CONTINUOUS
 10
-0.063004
 20
0.047496
  0
VERTEX
  8
LAYER_1
 62
    39
  6
CONTINUOUS
 10
-0.064004
 20
0.052496
  0
VERTEX
  8
LAYER_1
 62
    39
  6
CONTINUOUS
 10
-0.065004
 20
0.057496
  0
VERTEX
  8
LAYER_1
 62
    39
  6
CONTINUOUS
 10
-0.066004
 20
0.062496
  0
VERTEX
  8
LAYER_1
 62
    39
  6
CONTINUOUS
 10
-0.067004
 20
0.067496
  0
VERTEX
  8
LAYER_1
 62
    39
  6
CONTINUOUS
 10
-0.069004
 20
0.072496
  0
VERTEX
  8
LAYER_1
 62
    39
  6
CONTINUOUS
 10
-0.071004
 20
0.076496
  0
VERTEX
  8
LAYER_1
 62
    39
  6
CONTINUOUS
 10
-0.073004
 20
0.081496
  0
VERTEX
  8
LAYER_1
 62
    39
  6
CONTINUOUS
 10
-0.075004
 20
0.086496
  0
VERTEX
  8
LAYER_1
 62
    39
  6
CONTINUOUS
 10
-0.077004
 20
0.090496
  0
VERTEX
  8
LAYER_1
 62
    39
  6
CONTINUOUS
 10
-0.079004
 20
0.094496
  0
VERTEX
  8
LAYER_1
 62
    39
  6
CONTINUOUS
 10
-0.082004
 20
0.098496
  0
VERTEX
  8
LAYER_1
 62
    39
  6
CONTINUOUS
 10
-0.086004
 20
0.101496
  0
VERTEX
  8
LAYER_1
 62
    39
  6
CONTINUOUS
 10
-0.089004
 20
0.105496
  0
VERTEX
  8
LAYER_1
 62
    39
  6
CONTINUOUS
 10
-0.092004
 20
0.109496
  0
VERTEX
  8
LAYER_1
 62
    39
  6
CONTINUOUS
 10
-0.096004
 20
0.112496
  0
VERTEX
  8
LAYER_1
 62
    39
  6
CONTINUOUS
 10
-0.100004
 20
0.115496
  0
VERTEX
  8
LAYER_1
 62
    39
  6
CONTINUOUS
 10
-0.104004
 20
0.118496
  0
VERTEX
  8
LAYER_1
 62
    39
  6
CONTINUOUS
 10
-0.108004
 20
0.121496
  0
VERTEX
  8
LAYER_1
 62
    39
  6
CONTINUOUS
 10
-0.113004
 20
0.124496
  0
VERTEX
  8
LAYER_1
 62
    39
  6
CONTINUOUS
 10
-0.117004
 20
0.126496
  0
VERTEX
  8
LAYER_1
 62
    39
  6
CONTINUOUS
 10
-0.122004
 20
0.129496
  0
VERTEX
  8
LAYER_1
 62
    39
  6
CONTINUOUS
 10
-0.126004
 20
0.131496
  0
VERTEX
  8
LAYER_1
 62
    39
  6
CONTINUOUS
 10
-0.131004
 20
0.132496
  0
VERTEX
  8
LAYER_1
 62
    39
  6
CONTINUOUS
 10
-0.136004
 20
0.134496
  0
VERTEX
  8
LAYER_1
 62
    39
  6
CONTINUOUS
 10
-0.140004
 20
0.135496
  0
VERTEX
  8
LAYER_1
 62
    39
  6
CONTINUOUS
 10
-0.145004
 20
0.136496
  0
VERTEX
  8
LAYER_1
 62
    39
  6
CONTINUOUS
 10
-0.150004
 20
0.137496
  0
VERTEX
  8
LAYER_1
 62
    39
  6
CONTINUOUS
 10
-0.155004
 20
0.137496
  0
VERTEX
  8
LAYER_1
 62
    39
  6
CONTINUOUS
 10
-0.160004
 20
0.138496
  0
VERTEX
  8
LAYER_1
 62
    39
  6
CONTINUOUS
 10
-0.165004
 20
0.138496
  0
VERTEX
  8
LAYER_1
 62
    39
  6
CONTINUOUS
 10
-0.170004
 20
0.137496
  0
VERTEX
  8
LAYER_1
 62
    39
  6
CONTINUOUS
 10
-0.175004
 20
0.137496
  0
VERTEX
  8
LAYER_1
 62
    39
  6
CONTINUOUS
 10
-0.180004
 20
0.136496
  0
VERTEX
  8
LAYER_1
 62
    39
  6
CONTINUOUS
 10
-0.185004
 20
0.135496
  0
VERTEX
  8
LAYER_1
 62
    39
  6
CONTINUOUS
 10
-0.190004
 20
0.134496
  0
VERTEX
  8
LAYER_1
 62
    39
  6
CONTINUOUS
 10
-0.195004
 20
0.132496
  0
VERTEX
  8
LAYER_1
 62
    39
  6
CONTINUOUS
 10
-0.200004
 20
0.131496
  0
VERTEX
  8
LAYER_1
 62
    39
  6
CONTINUOUS
 10
-0.203004
 20
0.129496
  0
VERTEX
  8
LAYER_1
 62
    39
  6
CONTINUOUS
 10
-0.208004
 20
0.126496
  0
VERTEX
  8
LAYER_1
 62
    39
  6
CONTINUOUS
 10
-0.212004
 20
0.124496
  0
VERTEX
  8
LAYER_1
 62
    39
  6
CONTINUOUS
 10
-0.217004
 20
0.121496
  0
VERTEX
  8
LAYER_1
 62
    39
  6
CONTINUOUS
 10
-0.221004
 20
0.118496
  0
VERTEX
  8
LAYER_1
 62
    39
  6
CONTINUOUS
 10
-0.225004
 20
0.115496
  0
VERTEX
  8
LAYER_1
 62
    39
  6
CONTINUOUS
 10
-0.229004
 20
0.112496
  0
VERTEX
  8
LAYER_1
 62
    39
  6
CONTINUOUS
 10
-0.232004
 20
0.109496
  0
VERTEX
  8
LAYER_1
 62
    39
  6
CONTINUOUS
 10
-0.236004
 20
0.105496
  0
VERTEX
  8
LAYER_1
 62
    39
  6
CONTINUOUS
 10
-0.239004
 20
0.101496
  0
VERTEX
  8
LAYER_1
 62
    39
  6
CONTINUOUS
 10
-0.242004
 20
0.098496
  0
VERTEX
  8
LAYER_1
 62
    39
  6
CONTINUOUS
 10
-0.245004
 20
0.094496
  0
VERTEX
  8
LAYER_1
 62
    39
  6
CONTINUOUS
 10
-0.248004
 20
0.090496
  0
VERTEX
  8
LAYER_1
 62
    39
  6
CONTINUOUS
 10
-0.251004
 20
0.086496
  0
VERTEX
  8
LAYER_1
 62
    39
  6
CONTINUOUS
 10
-0.253004
 20
0.081496
  0
VERTEX
  8
LAYER_1
 62
    39
  6
CONTINUOUS
 10
-0.255004
 20
0.076496
  0
VERTEX
  8
LAYER_1
 62
    39
  6
CONTINUOUS
 10
-0.257004
 20
0.072496
  0
VERTEX
  8
LAYER_1
 62
    39
  6
CONTINUOUS
 10
-0.258004
 20
0.067496
  0
VERTEX
  8
LAYER_1
 62
    39
  6
CONTINUOUS
 10
-0.260004
 20
0.062496
  0
VERTEX
  8
LAYER_1
 62
    39
  6
CONTINUOUS
 10
-0.261004
 20
0.057496
  0
VERTEX
  8
LAYER_1
 62
    39
  6
CONTINUOUS
 10
-0.262004
 20
0.052496
  0
VERTEX
  8
LAYER_1
 62
    39
  6
CONTINUOUS
 10
-0.262004
 20
0.047496
  0
VERTEX
  8
LAYER_1
 62
    39
  6
CONTINUOUS
 10
-0.262004
 20
0.042496
  0
VERTEX
  8
LAYER_1
 62
    39
  6
CONTINUOUS
 10
-0.262004
 20
0.038496
  0
VERTEX
  8
LAYER_1
 62
    39
  6
CONTINUOUS
 10
-0.262004
 20
0.033496
  0
VERTEX
  8
LAYER_1
 62
    39
  6
CONTINUOUS
 10
-0.262004
 20
0.028496
  0
VERTEX
  8
LAYER_1
 62
    39
  6
CONTINUOUS
 10
-0.262004
 20
0.023496
  0
VERTEX
  8
LAYER_1
 62
    39
  6
CONTINUOUS
 10
-0.261004
 20
0.018496
  0
VERTEX
  8
LAYER_1
 62
    39
  6
CONTINUOUS
 10
-0.260004
 20
0.013496
  0
VERTEX
  8
LAYER_1
 62
    39
  6
CONTINUOUS
 10
-0.258004
 20
0.008496
  0
VERTEX
  8
LAYER_1
 62
    39
  6
CONTINUOUS
 10
-0.257004
 20
0.003496
  0
VERTEX
  8
LAYER_1
 62
    39
  6
CONTINUOUS
 10
-0.255004
 20
-0.000504
  0
VERTEX
  8
LAYER_1
 62
    39
  6
CONTINUOUS
 10
-0.253004
 20
-0.005504
  0
VERTEX
  8
LAYER_1
 62
    39
  6
CONTINUOUS
 10
-0.251004
 20
-0.010504
  0
VERTEX
  8
LAYER_1
 62
    39
  6
CONTINUOUS
 10
-0.248004
 20
-0.014504
  0
VERTEX
  8
LAYER_1
 62
    39
  6
CONTINUOUS
 10
-0.245004
 20
-0.018504
  0
VERTEX
  8
LAYER_1
 62
    39
  6
CONTINUOUS
 10
-0.242004
 20
-0.022504
  0
VERTEX
  8
LAYER_1
 62
    39
  6
CONTINUOUS
 10
-0.239004
 20
-0.025504
  0
VERTEX
  8
LAYER_1
 62
    39
  6
CONTINUOUS
 10
-0.236004
 20
-0.029504
  0
VERTEX
  8
LAYER_1
 62
    39
  6
CONTINUOUS
 10
-0.232004
 20
-0.033504
  0
VERTEX
  8
LAYER_1
 62
    39
  6
CONTINUOUS
 10
-0.229004
 20
-0.036504
  0
VERTEX
  8
LAYER_1
 62
    39
  6
CONTINUOUS
 10
-0.225004
 20
-0.039504
  0
VERTEX
  8
LAYER_1
 62
    39
  6
CONTINUOUS
 10
-0.221004
 20
-0.042504
  0
VERTEX
  8
LAYER_1
 62
    39
  6
CONTINUOUS
 10
-0.217004
 20
-0.045504
  0
VERTEX
  8
LAYER_1
 62
    39
  6
CONTINUOUS
 10
-0.212004
 20
-0.048504
  0
VERTEX
  8
LAYER_1
 62
    39
  6
CONTINUOUS
 10
-0.208004
 20
-0.050504
  0
VERTEX
  8
LAYER_1
 62
    39
  6
CONTINUOUS
 10
-0.203004
 20
-0.053504
  0
VERTEX
  8
LAYER_1
 62
    39
  6
CONTINUOUS
 10
-0.200004
 20
-0.055504
  0
VERTEX
  8
LAYER_1
 62
    39
  6
CONTINUOUS
 10
-0.195004
 20
-0.056504
  0
VERTEX
  8
LAYER_1
 62
    39
  6
CONTINUOUS
 10
-0.190004
 20
-0.058504
  0
VERTEX
  8
LAYER_1
 62
    39
  6
CONTINUOUS
 10
-0.185004
 20
-0.059504
  0
VERTEX
  8
LAYER_1
 62
    39
  6
CONTINUOUS
 10
-0.180004
 20
-0.060504
  0
VERTEX
  8
LAYER_1
 62
    39
  6
CONTINUOUS
 10
-0.175004
 20
-0.061504
  0
VERTEX
  8
LAYER_1
 62
    39
  6
CONTINUOUS
 10
-0.170004
 20
-0.061504
  0
VERTEX
  8
LAYER_1
 62
    39
  6
CONTINUOUS
 10
-0.165004
 20
-0.062504
  0
VERTEX
  8
LAYER_1
 62
    39
  6
CONTINUOUS
 10
-0.160004
 20
-0.062504
  0
VERTEX
  8
LAYER_1
 62
    39
  6
CONTINUOUS
 10
-0.155004
 20
-0.061504
  0
VERTEX
  8
LAYER_1
 62
    39
  6
CONTINUOUS
 10
-0.150004
 20
-0.061504
  0
VERTEX
  8
LAYER_1
 62
    39
  6
CONTINUOUS
 10
-0.145004
 20
-0.060504
  0
VERTEX
  8
LAYER_1
 62
    39
  6
CONTINUOUS
 10
-0.140004
 20
-0.059504
  0
VERTEX
  8
LAYER_1
 62
    39
  6
CONTINUOUS
 10
-0.136004
 20
-0.058504
  0
VERTEX
  8
LAYER_1
 62
    39
  6
CONTINUOUS
 10
-0.131004
 20
-0.056504
  0
VERTEX
  8
LAYER_1
 62
    39
  6
CONTINUOUS
 10
-0.126004
 20
-0.055504
  0
VERTEX
  8
LAYER_1
 62
    39
  6
CONTINUOUS
 10
-0.122004
 20
-0.053504
  0
VERTEX
  8
LAYER_1
 62
    39
  6
CONTINUOUS
 10
-0.117004
 20
-0.050504
  0
VERTEX
  8
LAYER_1
 62
    39
  6
CONTINUOUS
 10
-0.113004
 20
-0.048504
  0
VERTEX
  8
LAYER_1
 62
    39
  6
CONTINUOUS
 10
-0.108004
 20
-0.045504
  0
VERTEX
  8
LAYER_1
 62
    39
  6
CONTINUOUS
 10
-0.104004
 20
-0.042504
  0
VERTEX
  8
LAYER_1
 62
    39
  6
CONTINUOUS
 10
-0.100004
 20
-0.039504
  0
VERTEX
  8
LAYER_1
 62
    39
  6
CONTINUOUS
 10
-0.096004
 20
-0.036504
  0
VERTEX
  8
LAYER_1
 62
    39
  6
CONTINUOUS
 10
-0.092004
 20
-0.033504
  0
VERTEX
  8
LAYER_1
 62
    39
  6
CONTINUOUS
 10
-0.089004
 20
-0.029504
  0
VERTEX
  8
LAYER_1
 62
    39
  6
CONTINUOUS
 10
-0.086004
 20
-0.025504
  0
VERTEX
  8
LAYER_1
 62
    39
  6
CONTINUOUS
 10
-0.082004
 20
-0.022504
  0
VERTEX
  8
LAYER_1
 62
    39
  6
CONTINUOUS
 10
-0.079004
 20
-0.018504
  0
VERTEX
  8
LAYER_1
 62
    39
  6
CONTINUOUS
 10
-0.077004
 20
-0.014504
  0
VERTEX
  8
LAYER_1
 62
    39
  6
CONTINUOUS
 10
-0.075004
 20
-0.010504
  0
VERTEX
  8
LAYER_1
 62
    39
  6
CONTINUOUS
 10
-0.073004
 20
-0.005504
  0
VERTEX
  8
LAYER_1
 62
    39
  6
CONTINUOUS
 10
-0.071004
 20
-0.000504
  0
VERTEX
  8
LAYER_1
 62
    39
  6
CONTINUOUS
 10
-0.069004
 20
0.003496
  0
VERTEX
  8
LAYER_1
 62
    39
  6
CONTINUOUS
 10
-0.067004
 20
0.008496
  0
VERTEX
  8
LAYER_1
 62
    39
  6
CONTINUOUS
 10
-0.066004
 20
0.013496
  0
VERTEX
  8
LAYER_1
 62
    39
  6
CONTINUOUS
 10
-0.065004
 20
0.018496
  0
VERTEX
  8
LAYER_1
 62
    39
  6
CONTINUOUS
 10
-0.064004
 20
0.023496
  0
VERTEX
  8
LAYER_1
 62
    39
  6
CONTINUOUS
 10
-0.063004
 20
0.028496
  0
VERTEX
  8
LAYER_1
 62
    39
  6
CONTINUOUS
 10
-0.063004
 20
0.033496
  0
SEQEND
  8
0
  0
POLYLINE
  8
LAYER_1
 62
    39
  6
CONTINUOUS
 66
     1
 40
0.004390
 41
0.004390
 70
     1
  0
VERTEX
  8
LAYER_1
 62
    39
  6
CONTINUOUS
 10
-0.337004
 20
0.088496
  0
VERTEX
  8
LAYER_1
 62
    39
  6
CONTINUOUS
 10
-0.337004
 20
0.093496
  0
VERTEX
  8
LAYER_1
 62
    39
  6
CONTINUOUS
 10
-0.338004
 20
0.098496
  0
VERTEX
  8
LAYER_1
 62
    39
  6
CONTINUOUS
 10
-0.339004
 20
0.102496
  0
VERTEX
  8
LAYER_1
 62
    39
  6
CONTINUOUS
 10
-0.341004
 20
0.107496
  0
VERTEX
  8
LAYER_1
 62
    39
  6
CONTINUOUS
 10
-0.343004
 20
0.111496
  0
VERTEX
  8
LAYER_1
 62
    39
  6
CONTINUOUS
 10
-0.346004
 20
0.115496
  0
VERTEX
  8
LAYER_1
 62
    39
  6
CONTINUOUS
 10
-0.349004
 20
0.119496
  0
VERTEX
  8
LAYER_1
 62
    39
  6
CONTINUOUS
 10
-0.353004
 20
0.123496
  0
VERTEX
  8
LAYER_1
 62
    39
  6
CONTINUOUS
 10
-0.356004
 20
0.127496
  0
VERTEX
  8
LAYER_1
 62
    39
  6
CONTINUOUS
 10
-0.360004
 20
0.129496
  0
VERTEX
  8
LAYER_1
 62
    39
  6
CONTINUOUS
 10
-0.365004
 20
0.132496
  0
VERTEX
  8
LAYER_1
 62
    39
  6
CONTINUOUS
 10
-0.369004
 20
0.134496
  0
VERTEX
  8
LAYER_1
 62
    39
  6
CONTINUOUS
 10
-0.374004
 20
0.136496
  0
VERTEX
  8
LAYER_1
 62
    39
  6
CONTINUOUS
 10
-0.379004
 20
0.137496
  0
VERTEX
  8
LAYER_1
 62
    39
  6
CONTINUOUS
 10
-0.384004
 20
0.137496
  0
VERTEX
  8
LAYER_1
 62
    39
  6
CONTINUOUS
 10
-0.388004
 20
0.138496
  0
VERTEX
  8
LAYER_1
 62
    39
  6
CONTINUOUS
 10
-0.393004
 20
0.137496
  0
VERTEX
  8
LAYER_1
 62
    39
  6
CONTINUOUS
 10
-0.398004
 20
0.136496
  0
VERTEX
  8
LAYER_1
 62
    39
  6
CONTINUOUS
 10
-0.403004
 20
0.135496
  0
VERTEX
  8
LAYER_1
 62
    39
  6
CONTINUOUS
 10
-0.408004
 20
0.133496
  0
VERTEX
  8
LAYER_1
 62
    39
  6
CONTINUOUS
 10
-0.412004
 20
0.131496
  0
VERTEX
  8
LAYER_1
 62
    39
  6
CONTINUOUS
 10
-0.417004
 20
0.128496
  0
VERTEX
  8
LAYER_1
 62
    39
  6
CONTINUOUS
 10
-0.421004
 20
0.125496
  0
VERTEX
  8
LAYER_1
 62
    39
  6
CONTINUOUS
 10
-0.424004
 20
0.121496
  0
VERTEX
  8
LAYER_1
 62
    39
  6
CONTINUOUS
 10
-0.427004
 20
0.117496
  0
VERTEX
  8
LAYER_1
 62
    39
  6
CONTINUOUS
 10
-0.430004
 20
0.113496
  0
VERTEX
  8
LAYER_1
 62
    39
  6
CONTINUOUS
 10
-0.433004
 20
0.109496
  0
VERTEX
  8
LAYER_1
 62
    39
  6
CONTINUOUS
 10
-0.435004
 20
0.104496
  0
VERTEX
  8
LAYER_1
 62
    39
  6
CONTINUOUS
 10
-0.436004
 20
0.100496
  0
VERTEX
  8
LAYER_1
 62
    39
  6
CONTINUOUS
 10
-0.437004
 20
0.095496
  0
VERTEX
  8
LAYER_1
 62
    39
  6
CONTINUOUS
 10
-0.438004
 20
0.090496
  0
VERTEX
  8
LAYER_1
 62
    39
  6
CONTINUOUS
 10
-0.438004
 20
0.085496
  0
VERTEX
  8
LAYER_1
 62
    39
  6
CONTINUOUS
 10
-0.437004
 20
0.080496
  0
VERTEX
  8
LAYER_1
 62
    39
  6
CONTINUOUS
 10
-0.436004
 20
0.075496
  0
VERTEX
  8
LAYER_1
 62
    39
  6
CONTINUOUS
 10
-0.435004
 20
0.070496
  0
VERTEX
  8
LAYER_1
 62
    39
  6
CONTINUOUS
 10
-0.433004
 20
0.066496
  0
VERTEX
  8
LAYER_1
 62
    39
  6
CONTINUOUS
 10
-0.430004
 20
0.061496
  0
VERTEX
  8
LAYER_1
 62
    39
  6
CONTINUOUS
 10
-0.427004
 20
0.057496
  0
VERTEX
  8
LAYER_1
 62
    39
  6
CONTINUOUS
 10
-0.424004
 20
0.053496
  0
VERTEX
  8
LAYER_1
 62
    39
  6
CONTINUOUS
 10
-0.421004
 20
0.050496
  0
VERTEX
  8
LAYER_1
 62
    39
  6
CONTINUOUS
 10
-0.417004
 20
0.047496
  0
VERTEX
  8
LAYER_1
 62
    39
  6
CONTINUOUS
 10
-0.412004
 20
0.044496
  0
VERTEX
  8
LAYER_1
 62
    39
  6
CONTINUOUS
 10
-0.408004
 20
0.041496
  0
VERTEX
  8
LAYER_1
 62
    39
  6
CONTINUOUS
 10
-0.403004
 20
0.040496
  0
VERTEX
  8
LAYER_1
 62
    39
  6
CONTINUOUS
 10
-0.398004
 20
0.038496
  0
VERTEX
  8
LAYER_1
 62
    39
  6
CONTINUOUS
 10
-0.393004
 20
0.038496
  0
VERTEX
  8
LAYER_1
 62
    39
  6
CONTINUOUS
 10
-0.388004
 20
0.038496
  0
VERTEX
  8
LAYER_1
 62
    39
  6
CONTINUOUS
 10
-0.384004
 20
0.038496
  0
VERTEX
  8
LAYER_1
 62
    39
  6
CONTINUOUS
 10
-0.379004
 20
0.038496
  0
VERTEX
  8
LAYER_1
 62
    39
  6
CONTINUOUS
 10
-0.374004
 20
0.039496
  0
VERTEX
  8
LAYER_1
 62
    39
  6
CONTINUOUS
 10
-0.369004
 20
0.041496
  0
VERTEX
  8
LAYER_1
 62
    39
  6
CONTINUOUS
 10
-0.365004
 20
0.043496
  0
VERTEX
  8
LAYER_1
 62
    39
  6
CONTINUOUS
 10
-0.360004
 20
0.045496
  0
VERTEX
  8
LAYER_1
 62
    39
  6
CONTINUOUS
 10
-0.356004
 20
0.048496
  0
VERTEX
  8
LAYER_1
 62
    39
  6
CONTINUOUS
 10
-0.353004
 20
0.051496
  0
VERTEX
  8
LAYER_1
 62
    39
  6
CONTINUOUS
 10
-0.349004
 20
0.055496
  0
VERTEX
  8
LAYER_1
 62
    39
  6
CONTINUOUS
 10
-0.346004
 20
0.059496
  0
VERTEX
  8
LAYER_1
 62
    39
  6
CONTINUOUS
 10
-0.343004
 20
0.064496
  0
VERTEX
  8
LAYER_1
 62
    39
  6
CONTINUOUS
 10
-0.341004
 20
0.068496
  0
VERTEX
  8
LAYER_1
 62
    39
  6
CONTINUOUS
 10
-0.339004
 20
0.073496
  0
VERTEX
  8
LAYER_1
 62
    39
  6
CONTINUOUS
 10
-0.338004
 20
0.078496
  0
VERTEX
  8
LAYER_1
 62
    39
  6
CONTINUOUS
 10
-0.337004
 20
0.083496
  0
SEQEND
  8
0
  0
POLYLINE
  8
LAYER_1
 62
    39
  6
CONTINUOUS
 66
     1
 40
0.004390
 41
0.004390
 70
     1
  0
VERTEX
  8
LAYER_1
 62
    39
  6
CONTINUOUS
 10
-0.438004
 20
0.213496
  0
VERTEX
  8
LAYER_1
 62
    39
  6
CONTINUOUS
 10
-0.738004
 20
0.213496
  0
VERTEX
  8
LAYER_1
 62
    39
  6
CONTINUOUS
 10
-0.738004
 20
0.312496
  0
VERTEX
  8
LAYER_1
 62
    39
  6
CONTINUOUS
 10
-0.438004
 20
0.312496
  0
SEQEND
  8
0
  0
POLYLINE
  8
LAYER_1
 62
    39
  6
CONTINUOUS
 66
     1
 40
0.004390
 41
0.004390
  0
VERTEX
  8
LAYER_1
 62
    39
  6
CONTINUOUS
 10
-0.438004
 20
0.333496
  0
VERTEX
  8
LAYER_1
 62
    39
  6
CONTINUOUS
 10
-0.438004
 20
0.393496
  0
VERTEX
  8
LAYER_1
 62
    39
  6
CONTINUOUS
 10
-0.407004
 20
0.393496
  0
VERTEX
  8
LAYER_1
 62
    39
  6
CONTINUOUS
 10
-0.397004
 20
0.383496
  0
VERTEX
  8
LAYER_1
 62
    39
  6
CONTINUOUS
 10
-0.397004
 20
0.372496
  0
VERTEX
  8
LAYER_1
 62
    39
  6
CONTINUOUS
 10
-0.407004
 20
0.362496
  0
VERTEX
  8
LAYER_1
 62
    39
  6
CONTINUOUS
 10
-0.438004
 20
0.362496
  0
VERTEX
  8
LAYER_1
 62
    39
  6
CONTINUOUS
 10
-0.428004
 20
0.362496
  0
VERTEX
  8
LAYER_1
 62
    39
  6
CONTINUOUS
 10
-0.397004
 20
0.333496
  0
SEQEND
  8
0
  0
POLYLINE
  8
LAYER_1
 62
    39
  6
CONTINUOUS
 66
     1
 40
0.004390
 41
0.004390
 70
     1
  0
VERTEX
  8
LAYER_1
 62
    39
  6
CONTINUOUS
 10
-0.368004
 20
0.333496
  0
VERTEX
  8
LAYER_1
 62
    39
  6
CONTINUOUS
 10
-0.378004
 20
0.343496
  0
VERTEX
  8
LAYER_1
 62
    39
  6
CONTINUOUS
 10
-0.378004
 20
0.352496
  0
VERTEX
  8
LAYER_1
 62
    39
  6
CONTINUOUS
 10
-0.368004
 20
0.362496
  0
VERTEX
  8
LAYER_1
 62
    39
  6
CONTINUOUS
 10
-0.347004
 20
0.362496
  0
VERTEX
  8
LAYER_1
 62
    39
  6
CONTINUOUS
 10
-0.337004
 20
0.372496
  0
VERTEX
  8
LAYER_1
 62
    39
  6
CONTINUOUS
 10
-0.337004
 20
0.383496
  0
VERTEX
  8
LAYER_1
 62
    39
  6
CONTINUOUS
 10
-0.347004
 20
0.393496
  0
VERTEX
  8
LAYER_1
 62
    39
  6
CONTINUOUS
 10
-0.368004
 20
0.393496
  0
VERTEX
  8
LAYER_1
 62
    39
  6
CONTINUOUS
 10
-0.378004
 20
0.383496
  0
VERTEX
  8
LAYER_1
 62
    39
  6
CONTINUOUS
 10
-0.378004
 20
0.372496
  0
VERTEX
  8
LAYER_1
 62
    39
  6
CONTINUOUS
 10
-0.368004
 20
0.362496
  0
VERTEX
  8
LAYER_1
 62
    39
  6
CONTINUOUS
 10
-0.347004
 20
0.362496
  0
VERTEX
  8
LAYER_1
 62
    39
  6
CONTINUOUS
 10
-0.337004
 20
0.352496
  0
VERTEX
  8
LAYER_1
 62
    39
  6
CONTINUOUS
 10
-0.337004
 20
0.343496
  0
VERTEX
  8
LAYER_1
 62
    39
  6
CONTINUOUS
 10
-0.347004
 20
0.333496
  0
SEQEND
  8
0
  0
POLYLINE
  8
LAYER_1
 62
    39
  6
CONTINUOUS
 66
     1
 40
0.004390
 41
0.004390
  0
VERTEX
  8
LAYER_1
 62
    39
  6
CONTINUOUS
 10
-0.287004
 20
0.362496
  0
VERTEX
  8
LAYER_1
 62
    39
  6
CONTINUOUS
 10
-0.288004
 20
0.367496
  0
VERTEX
  8
LAYER_1
 62
    39
  6
CONTINUOUS
 10
-0.288004
 20
0.372496
  0
VERTEX
  8
LAYER_1
 62
    39
  6
CONTINUOUS
 10
-0.290004
 20
0.377496
  0
VERTEX
  8
LAYER_1
 62
    39
  6
CONTINUOUS
 10
-0.291004
 20
0.382496
  0
VERTEX
  8
LAYER_1
 62
    39
  6
CONTINUOUS
 10
-0.293004
 20
0.386496
  0
VERTEX
  8
LAYER_1
 62
    39
  6
CONTINUOUS
 10
-0.296004
 20
0.390496
  0
VERTEX
  8
LAYER_1
 62
    39
  6
CONTINUOUS
 10
-0.299004
 20
0.394496
  0
VERTEX
  8
LAYER_1
 62
    39
  6
CONTINUOUS
 10
-0.302004
 20
0.398496
  0
VERTEX
  8
LAYER_1
 62
    39
  6
CONTINUOUS
 10
-0.306004
 20
0.401496
  0
VERTEX
  8
LAYER_1
 62
    39
  6
CONTINUOUS
 10
-0.310004
 20
0.404496
  0
VERTEX
  8
LAYER_1
 62
    39
  6
CONTINUOUS
 10
-0.314004
 20
0.407496
  0
VERTEX
  8
LAYER_1
 62
    39
  6
CONTINUOUS
 10
-0.319004
 20
0.409496
  0
VERTEX
  8
LAYER_1
 62
    39
  6
CONTINUOUS
 10
-0.323004
 20
0.411496
  0
VERTEX
  8
LAYER_1
 62
    39
  6
CONTINUOUS
 10
-0.327004
 20
0.412496
  0
VERTEX
  8
LAYER_1
 62
    39
  6
CONTINUOUS
 10
-0.332004
 20
0.413496
  0
VERTEX
  8
LAYER_1
 62
    39
  6
CONTINUOUS
 10
-0.337004
 20
0.413496
  0
SEQEND
  8
0
  0
POLYLINE
  8
LAYER_1
 62
    39
  6
CONTINUOUS
 66
     1
 40
0.004390
 41
0.004390
  0
VERTEX
  8
LAYER_1
 62
    39
  6
CONTINUOUS
 10
-0.337004
 20
0.312496
  0
VERTEX
  8
LAYER_1
 62
    39
  6
CONTINUOUS
 10
-0.332004
 20
0.313496
  0
VERTEX
  8
LAYER_1
 62
    39
  6
CONTINUOUS
 10
-0.327004
 20
0.313496
  0
VERTEX
  8
LAYER_1
 62
    39
  6
CONTINUOUS
 10
-0.323004
 20
0.315496
  0
VERTEX
  8
LAYER_1
 62
    39
  6
CONTINUOUS
 10
-0.319004
 20
0.316496
  0
VERTEX
  8
LAYER_1
 62
    39
  6
CONTINUOUS
 10
-0.314004
 20
0.318496
  0
VERTEX
  8
LAYER_1
 62
    39
  6
CONTINUOUS
 10
-0.310004
 20
0.321496
  0
VERTEX
  8
LAYER_1
 62
    39
  6
CONTINUOUS
 10
-0.306004
 20
0.324496
  0
VERTEX
  8
LAYER_1
 62
    39
  6
CONTINUOUS
 10
-0.302004
 20
0.327496
  0
VERTEX
  8
LAYER_1
 62
    39
  6
CONTINUOUS
 10
-0.299004
 20
0.331496
  0
VERTEX
  8
LAYER_1
 62
    39
  6
CONTINUOUS
 10
-0.296004
 20
0.335496
  0
VERTEX
  8
LAYER_1
 62
    39
  6
CONTINUOUS
 10
-0.293004
 20
0.339496
  0
VERTEX
  8
LAYER_1
 62
    39
  6
CONTINUOUS
 10
-0.291004
 20
0.344496
  0
VERTEX
  8
LAYER_1
 62
    39
  6
CONTINUOUS
 10
-0.290004
 20
0.348496
  0
VERTEX
  8
LAYER_1
 62
    39
  6
CONTINUOUS
 10
-0.288004
 20
0.352496
  0
VERTEX
  8
LAYER_1
 62
    39
  6
CONTINUOUS
 10
-0.288004
 20
0.357496
  0
VERTEX
  8
LAYER_1
 62
    39
  6
CONTINUOUS
 10
-0.287004
 20
0.362496
  0
SEQEND
  8
0
  0
POLYLINE
  8
LAYER_1
 62
    39
  6
CONTINUOUS
 66
     1
 40
0.004390
 41
0.004390
  0
VERTEX
  8
LAYER_1
 62
    39
  6
CONTINUOUS
 10
-0.287004
 20
0.464496
  0
VERTEX
  8
LAYER_1
 62
    39
  6
CONTINUOUS
 10
-0.238004
 20
0.464496
  0
VERTEX
  8
LAYER_1
 62
    39
  6
CONTINUOUS
 10
-0.238004
 20
0.462496
  0
VERTEX
  8
LAYER_1
 62
    39
  6
CONTINUOUS
 10
-0.287004
 20
0.462496
  0
VERTEX
  8
LAYER_1
 62
    39
  6
CONTINUOUS
 10
-0.287004
 20
0.464496
  0
VERTEX
  8
LAYER_1
 62
    39
  6
CONTINUOUS
 10
-0.287004
 20
0.463496
  0
VERTEX
  8
LAYER_1
 62
    39
  6
CONTINUOUS
 10
-0.238004
 20
0.463496
  0
VERTEX
  8
LAYER_1
 62
    39
  6
CONTINUOUS
 10
-0.239004
 20
0.463496
  0
VERTEX
  8
LAYER_1
 62
    39
  6
CONTINUOUS
 10
-0.239004
 20
0.763496
  0
VERTEX
  8
LAYER_1
 62
    39
  6
CONTINUOUS
 10
-0.237004
 20
0.763496
  0
VERTEX
  8
LAYER_1
 62
    39
  6
CONTINUOUS
 10
-0.237004
 20
0.463496
  0
VERTEX
  8
LAYER_1
 62
    39
  6
CONTINUOUS
 10
-0.239004
 20
0.463496
  0
VERTEX
  8
LAYER_1
 62
    39
  6
CONTINUOUS
 10
-0.238004
 20
0.463496
  0
VERTEX
  8
LAYER_1
 62
    39
  6
CONTINUOUS
 10
-0.238004
 20
0.763496
  0
VERTEX
  8
LAYER_1
 62
    39
  6
CONTINUOUS
 10
-0.238004
 20
0.762496
  0
VERTEX
  8
LAYER_1
 62
    39
  6
CONTINUOUS
 10
-0.287004
 20
0.762496
  0
VERTEX
  8
LAYER_1
 62
    39
  6
CONTINUOUS
 10
-0.287004
 20
0.764496
  0
VERTEX
  8
LAYER_1
 62
    39
  6
CONTINUOUS
 10
-0.238004
 20
0.764496
  0
VERTEX
  8
LAYER_1
 62
    39
  6
CONTINUOUS
 10
-0.238004
 20
0.762496
  0
VERTEX
  8
LAYER_1
 62
    39
  6
CONTINUOUS
 10
-0.238004
 20
0.763496
  0
VERTEX
  8
LAYER_1
 62
    39
  6
CONTINUOUS
 10
-0.287004
 20
0.763496
  0
SEQEND
  8
0
  0
POLYLINE
  8
LAYER_1
 62
    39
  6
CONTINUOUS
 66
     1
 40
0.004390
 41
0.004390
  0
VERTEX
  8
LAYER_1
 62
    39
  6
CONTINUOUS
 10
-0.212004
 20
0.763496
  0
VERTEX
  8
LAYER_1
 62
    39
  6
CONTINUOUS
 10
-0.212004
 20
0.562496
  0
SEQEND
  8
0
  0
POLYLINE
  8
LAYER_1
 62
    39
  6
CONTINUOUS
 66
     1
 40
0.004390
 41
0.004390
  0
VERTEX
  8
LAYER_1
 62
    39
  6
CONTINUOUS
 10
-0.212004
 20
0.562496
  0
VERTEX
  8
LAYER_1
 62
    39
  6
CONTINUOUS
 10
-0.212004
 20
0.557496
  0
VERTEX
  8
LAYER_1
 62
    39
  6
CONTINUOUS
 10
-0.211004
 20
0.552496
  0
VERTEX
  8
LAYER_1
 62
    39
  6
CONTINUOUS
 10
-0.210004
 20
0.547496
  0
VERTEX
  8
LAYER_1
 62
    39
  6
CONTINUOUS
 10
-0.208004
 20
0.542496
  0
VERTEX
  8
LAYER_1
 62
    39
  6
CONTINUOUS
 10
-0.206004
 20
0.538496
  0
VERTEX
  8
LAYER_1
 62
    39
  6
CONTINUOUS
 10
-0.203004
 20
0.534496
  0
VERTEX
  8
LAYER_1
 62
    39
  6
CONTINUOUS
 10
-0.200004
 20
0.530496
  0
VERTEX
  8
LAYER_1
 62
    39
  6
CONTINUOUS
 10
-0.197004
 20
0.527496
  0
VERTEX
  8
LAYER_1
 62
    39
  6
CONTINUOUS
 10
-0.193004
 20
0.523496
  0
VERTEX
  8
LAYER_1
 62
    39
  6
CONTINUOUS
 10
-0.189004
 20
0.520496
  0
VERTEX
  8
LAYER_1
 62
    39
  6
CONTINUOUS
 10
-0.185004
 20
0.518496
  0
VERTEX
  8
LAYER_1
 62
    39
  6
CONTINUOUS
 10
-0.180004
 20
0.516496
  0
VERTEX
  8
LAYER_1
 62
    39
  6
CONTINUOUS
 10
-0.175004
 20
0.514496
  0
VERTEX
  8
LAYER_1
 62
    39
  6
CONTINUOUS
 10
-0.170004
 20
0.513496
  0
VERTEX
  8
LAYER_1
 62
    39
  6
CONTINUOUS
 10
-0.165004
 20
0.513496
  0
VERTEX
  8
LAYER_1
 62
    39
  6
CONTINUOUS
 10
-0.160004
 20
0.513496
  0
VERTEX
  8
LAYER_1
 62
    39
  6
CONTINUOUS
 10
-0.155004
 20
0.513496
  0
VERTEX
  8
LAYER_1
 62
    39
  6
CONTINUOUS
 10
-0.150004
 20
0.514496
  0
VERTEX
  8
LAYER_1
 62
    39
  6
CONTINUOUS
 10
-0.145004
 20
0.516496
  0
VERTEX
  8
LAYER_1
 62
    39
  6
CONTINUOUS
 10
-0.140004
 20
0.518496
  0
VERTEX
  8
LAYER_1
 62
    39
  6
CONTINUOUS
 10
-0.137004
 20
0.520496
  0
VERTEX
  8
LAYER_1
 62
    39
  6
CONTINUOUS
 10
-0.132004
 20
0.523496
  0
VERTEX
  8
LAYER_1
 62
    39
  6
CONTINUOUS
 10
-0.128004
 20
0.527496
  0
VERTEX
  8
LAYER_1
 62
    39
  6
CONTINUOUS
 10
-0.125004
 20
0.530496
  0
VERTEX
  8
LAYER_1
 62
    39
  6
CONTINUOUS
 10
-0.122004
 20
0.534496
  0
VERTEX
  8
LAYER_1
 62
    39
  6
CONTINUOUS
 10
-0.119004
 20
0.538496
  0
VERTEX
  8
LAYER_1
 62
    39
  6
CONTINUOUS
 10
-0.117004
 20
0.542496
  0
VERTEX
  8
LAYER_1
 62
    39
  6
CONTINUOUS
 10
-0.115004
 20
0.547496
  0
VERTEX
  8
LAYER_1
 62
    39
  6
CONTINUOUS
 10
-0.114004
 20
0.552496
  0
VERTEX
  8
LAYER_1
 62
    39
  6
CONTINUOUS
 10
-0.113004
 20
0.557496
  0
VERTEX
  8
LAYER_1
 62
    39
  6
CONTINUOUS
 10
-0.113004
 20
0.562496
  0
SEQEND
  8
0
  0
POLYLINE
  8
LAYER_1
 62
    39
  6
CONTINUOUS
 66
     1
 40
0.004390
 41
0.004390
  0
VERTEX
  8
LAYER_1
 62
    39
  6
CONTINUOUS
 10
-0.113004
 20
0.562496
  0
VERTEX
  8
LAYER_1
 62
    39
  6
CONTINUOUS
 10
-0.113004
 20
0.763496
  0
SEQEND
  8
0
  0
POLYLINE
  8
LAYER_1
 62
    39
  6
CONTINUOUS
 66
     1
 40
0.004390
 41
0.004390
 70
     1
  0
VERTEX
  8
LAYER_1
 62
    39
  6
CONTINUOUS
 10
-0.113004
 20
0.763496
  0
VERTEX
  8
LAYER_1
 62
    39
  6
CONTINUOUS
 10
-0.113004
 20
0.768496
  0
VERTEX
  8
LAYER_1
 62
    39
  6
CONTINUOUS
 10
-0.114004
 20
0.773496
  0
VERTEX
  8
LAYER_1
 62
    39
  6
CONTINUOUS
 10
-0.115004
 20
0.778496
  0
VERTEX
  8
LAYER_1
 62
    39
  6
CONTINUOUS
 10
-0.117004
 20
0.783496
  0
VERTEX
  8
LAYER_1
 62
    39
  6
CONTINUOUS
 10
-0.119004
 20
0.787496
  0
VERTEX
  8
LAYER_1
 62
    39
  6
CONTINUOUS
 10
-0.122004
 20
0.791496
  0
VERTEX
  8
LAYER_1
 62
    39
  6
CONTINUOUS
 10
-0.125004
 20
0.795496
  0
VERTEX
  8
LAYER_1
 62
    39
  6
CONTINUOUS
 10
-0.128004
 20
0.798496
  0
VERTEX
  8
LAYER_1
 62
    39
  6
CONTINUOUS
 10
-0.132004
 20
0.802496
  0
VERTEX
  8
LAYER_1
 62
    39
  6
CONTINUOUS
 10
-0.137004
 20
0.805496
  0
VERTEX
  8
LAYER_1
 62
    39
  6
CONTINUOUS
 10
-0.140004
 20
0.807496
  0
VERTEX
  8
LAYER_1
 62
    39
  6
CONTINUOUS
 10
-0.145004
 20
0.809496
  0
VERTEX
  8
LAYER_1
 62
    39
  6
CONTINUOUS
 10
-0.150004
 20
0.811496
  0
VERTEX
  8
LAYER_1
 62
    39
  6
CONTINUOUS
 10
-0.155004
 20
0.812496
  0
VERTEX
  8
LAYER_1
 62
    39
  6
CONTINUOUS
 10
-0.160004
 20
0.812496
  0
VERTEX
  8
LAYER_1
 62
    39
  6
CONTINUOUS
 10
-0.165004
 20
0.812496
  0
VERTEX
  8
LAYER_1
 62
    39
  6
CONTINUOUS
 10
-0.170004
 20
0.812496
  0
VERTEX
  8
LAYER_1
 62
    39
  6
CONTINUOUS
 10
-0.175004
 20
0.811496
  0
VERTEX
  8
LAYER_1
 62
    39
  6
CONTINUOUS
 10
-0.180004
 20
0.809496
  0
VERTEX
  8
LAYER_1
 62
    39
  6
CONTINUOUS
 10
-0.185004
 20
0.807496
  0
VERTEX
  8
LAYER_1
 62
    39
  6
CONTINUOUS
 10
-0.189004
 20
0.805496
  0
VERTEX
  8
LAYER_1
 62
    39
  6
CONTINUOUS
 10
-0.193004
 20
0.802496
  0
VERTEX
  8
LAYER_1
 62
    39
  6
CONTINUOUS
 10
-0.197004
 20
0.798496
  0
VERTEX
  8
LAYER_1
 62
    39
  6
CONTINUOUS
 10
-0.200004
 20
0.795496
  0
VERTEX
  8
LAYER_1
 62
    39
  6
CONTINUOUS
 10
-0.203004
 20
0.791496
  0
VERTEX
  8
LAYER_1
 62
    39
  6
CONTINUOUS
 10
-0.206004
 20
0.787496
  0
VERTEX
  8
LAYER_1
 62
    39
  6
CONTINUOUS
 10
-0.208004
 20
0.783496
  0
VERTEX
  8
LAYER_1
 62
    39
  6
CONTINUOUS
 10
-0.210004
 20
0.778496
  0
VERTEX
  8
LAYER_1
 62
    39
  6
CONTINUOUS
 10
-0.211004
 20
0.773496
  0
VERTEX
  8
LAYER_1
 62
    39
  6
CONTINUOUS
 10
-0.212004
 20
0.768496
  0
VERTEX
  8
LAYER_1
 62
    39
  6
CONTINUOUS
 10
-0.212004
 20
0.763496
  0
SEQEND
  8
0
  0
POLYLINE
  8
LAYER_1
 62
    39
  6
CONTINUOUS
 66
     1
 40
0.004390
 41
0.004390
  0
VERTEX
  8
LAYER_1
 62
    39
  6
CONTINUOUS
 10
-0.036004
 20
0.763496
  0
VERTEX
  8
LAYER_1
 62
    39
  6
CONTINUOUS
 10
-0.036004
 20
0.663496
  0
VERTEX
  8
LAYER_1
 62
    39
  6
CONTINUOUS
 10
-0.038004
 20
0.663496
  0
VERTEX
  8
LAYER_1
 62
    39
  6
CONTINUOUS
 10
-0.038004
 20
0.763496
  0
VERTEX
  8
LAYER_1
 62
    39
  6
CONTINUOUS
 10
-0.036004
 20
0.763496
  0
VERTEX
  8
LAYER_1
 62
    39
  6
CONTINUOUS
 10
-0.037004
 20
0.763496
  0
VERTEX
  8
LAYER_1
 62
    39
  6
CONTINUOUS
 10
-0.037004
 20
0.663496
  0
SEQEND
  8
0
  0
POLYLINE
  8
LAYER_1
 62
    39
  6
CONTINUOUS
 66
     1
 40
0.004390
 41
0.004390
  0
VERTEX
  8
LAYER_1
 62
    39
  6
CONTINUOUS
 10
0.011996
 20
0.612496
  0
VERTEX
  8
LAYER_1
 62
    39
  6
CONTINUOUS
 10
0.011996
 20
0.617496
  0
VERTEX
  8
LAYER_1
 62
    39
  6
CONTINUOUS
 10
0.010996
 20
0.622496
  0
VERTEX
  8
LAYER_1
 62
    39
  6
CONTINUOUS
 10
0.009996
 20
0.627496
  0
VERTEX
  8
LAYER_1
 62
    39
  6
CONTINUOUS
 10
0.008996
 20
0.632496
  0
VERTEX
  8
LAYER_1
 62
    39
  6
CONTINUOUS
 10
0.005996
 20
0.636496
  0
VERTEX
  8
LAYER_1
 62
    39
  6
CONTINUOUS
 10
0.003996
 20
0.640496
  0
VERTEX
  8
LAYER_1
 62
    39
  6
CONTINUOUS
 10
0.000996
 20
0.644496
  0
VERTEX
  8
LAYER_1
 62
    39
  6
CONTINUOUS
 10
-0.002004
 20
0.648496
  0
VERTEX
  8
LAYER_1
 62
    39
  6
CONTINUOUS
 10
-0.006004
 20
0.651496
  0
VERTEX
  8
LAYER_1
 62
    39
  6
CONTINUOUS
 10
-0.010004
 20
0.654496
  0
VERTEX
  8
LAYER_1
 62
    39
  6
CONTINUOUS
 10
-0.013004
 20
0.657496
  0
VERTEX
  8
LAYER_1
 62
    39
  6
CONTINUOUS
 10
-0.018004
 20
0.659496
  0
VERTEX
  8
LAYER_1
 62
    39
  6
CONTINUOUS
 10
-0.023004
 20
0.661496
  0
VERTEX
  8
LAYER_1
 62
    39
  6
CONTINUOUS
 10
-0.027004
 20
0.662496
  0
VERTEX
  8
LAYER_1
 62
    39
  6
CONTINUOUS
 10
-0.032004
 20
0.663496
  0
VERTEX
  8
LAYER_1
 62
    39
  6
CONTINUOUS
 10
-0.037004
 20
0.663496
  0
SEQEND
  8
0
  0
POLYLINE
  8
LAYER_1
 62
    39
  6
CONTINUOUS
 66
     1
 40
0.004390
 41
0.004390
 70
     1
  0
VERTEX
  8
LAYER_1
 62
    39
  6
CONTINUOUS
 10
-0.037004
 20
0.562496
  0
VERTEX
  8
LAYER_1
 62
    39
  6
CONTINUOUS
 10
-0.032004
 20
0.563496
  0
VERTEX
  8
LAYER_1
 62
    39
  6
CONTINUOUS
 10
-0.027004
 20
0.563496
  0
VERTEX
  8
LAYER_1
 62
    39
  6
CONTINUOUS
 10
-0.023004
 20
0.565496
  0
VERTEX
  8
LAYER_1
 62
    39
  6
CONTINUOUS
 10
-0.018004
 20
0.566496
  0
VERTEX
  8
LAYER_1
 62
    39
  6
CONTINUOUS
 10
-0.013004
 20
0.568496
  0
VERTEX
  8
LAYER_1
 62
    39
  6
CONTINUOUS
 10
-0.010004
 20
0.571496
  0
VERTEX
  8
LAYER_1
 62
    39
  6
CONTINUOUS
 10
-0.006004
 20
0.574496
  0
VERTEX
  8
LAYER_1
 62
    39
  6
CONTINUOUS
 10
-0.002004
 20
0.577496
  0
VERTEX
  8
LAYER_1
 62
    39
  6
CONTINUOUS
 10
0.000996
 20
0.581496
  0
VERTEX
  8
LAYER_1
 62
    39
  6
CONTINUOUS
 10
0.003996
 20
0.585496
  0
VERTEX
  8
LAYER_1
 62
    39
  6
CONTINUOUS
 10
0.005996
 20
0.589496
  0
VERTEX
  8
LAYER_1
 62
    39
  6
CONTINUOUS
 10
0.008996
 20
0.594496
  0
VERTEX
  8
LAYER_1
 62
    39
  6
CONTINUOUS
 10
0.009996
 20
0.598496
  0
VERTEX
  8
LAYER_1
 62
    39
  6
CONTINUOUS
 10
0.010996
 20
0.602496
  0
VERTEX
  8
LAYER_1
 62
    39
  6
CONTINUOUS
 10
0.011996
 20
0.607496
  0
VERTEX
  8
LAYER_1
 62
    39
  6
CONTINUOUS
 10
0.011996
 20
0.612496
  0
SEQEND
  8
0
  0
POLYLINE
  8
LAYER_1
 62
    39
  6
CONTINUOUS
 66
     1
 40
0.004390
 41
0.004390
  0
VERTEX
  8
LAYER_1
 62
    39
  6
CONTINUOUS
 10
-0.036004
 20
0.562496
  0
VERTEX
  8
LAYER_1
 62
    39
  6
CONTINUOUS
 10
-0.036004
 20
0.463496
  0
VERTEX
  8
LAYER_1
 62
    39
  6
CONTINUOUS
 10
-0.038004
 20
0.463496
  0
VERTEX
  8
LAYER_1
 62
    39
  6
CONTINUOUS
 10
-0.038004
 20
0.562496
  0
VERTEX
  8
LAYER_1
 62
    39
  6
CONTINUOUS
 10
-0.036004
 20
0.562496
  0
VERTEX
  8
LAYER_1
 62
    39
  6
CONTINUOUS
 10
-0.037004
 20
0.562496
  0
VERTEX
  8
LAYER_1
 62
    39
  6
CONTINUOUS
 10
-0.037004
 20
0.463496
  0
VERTEX
  8
LAYER_1
 62
    39
  6
CONTINUOUS
 10
-0.037004
 20
0.464496
  0
VERTEX
  8
LAYER_1
 62
    39
  6
CONTINUOUS
 10
0.011996
 20
0.464496
  0
VERTEX
  8
LAYER_1
 62
    39
  6
CONTINUOUS
 10
0.011996
 20
0.462496
  0
VERTEX
  8
LAYER_1
 62
    39
  6
CONTINUOUS
 10
-0.037004
 20
0.462496
  0
VERTEX
  8
LAYER_1
 62
    39
  6
CONTINUOUS
 10
-0.037004
 20
0.464496
  0
VERTEX
  8
LAYER_1
 62
    39
  6
CONTINUOUS
 10
-0.037004
 20
0.463496
  0
VERTEX
  8
LAYER_1
 62
    39
  6
CONTINUOUS
 10
0.011996
 20
0.463496
  0
SEQEND
  8
0
  0
POLYLINE
  8
LAYER_1
 62
    39
  6
CONTINUOUS
 66
     1
 40
0.004390
 41
0.004390
  0
VERTEX
  8
LAYER_1
 62
    39
  6
CONTINUOUS
 10
-0.133004
 20
0.643496
  0
VERTEX
  8
LAYER_1
 62
    39
  6
CONTINUOUS
 10
-0.142004
 20
0.653496
  0
VERTEX
  8
LAYER_1
 62
    39
  6
CONTINUOUS
 10
-0.133004
 20
0.643496
  0
VERTEX
  8
LAYER_1
 62
    39
  6
CONTINUOUS
 10
-0.133004
 20
0.622496
  0
VERTEX
  8
LAYER_1
 62
    39
  6
CONTINUOUS
 10
-0.142004
 20
0.612496
  0
VERTEX
  8
LAYER_1
 62
    39
  6
CONTINUOUS
 10
-0.183004
 20
0.612496
  0
VERTEX
  8
LAYER_1
 62
    39
  6
CONTINUOUS
 10
-0.193004
 20
0.622496
  0
VERTEX
  8
LAYER_1
 62
    39
  6
CONTINUOUS
 10
-0.193004
 20
0.643496
  0
VERTEX
  8
LAYER_1
 62
    39
  6
CONTINUOUS
 10
-0.183004
 20
0.653496
  0
SEQEND
  8
0
  0
POLYLINE
  8
LAYER_1
 62
    39
  6
CONTINUOUS
 66
     1
 40
0.004390
 41
0.004390
  0
VERTEX
  8
LAYER_1
 62
    39
  6
CONTINUOUS
 10
-0.183004
 20
0.672496
  0
VERTEX
  8
LAYER_1
 62
    39
  6
CONTINUOUS
 10
-0.193004
 20
0.682496
  0
VERTEX
  8
LAYER_1
 62
    39
  6
CONTINUOUS
 10
-0.133004
 20
0.682496
  0
VERTEX
  8
LAYER_1
 62
    39
  6
CONTINUOUS
 10
-0.133004
 20
0.672496
  0
VERTEX
  8
LAYER_1
 62
    39
  6
CONTINUOUS
 10
-0.133004
 20
0.692496
  0
SEQEND
  8
0
  0
POLYLINE
  8
LAYER_1
 62
    39
  6
CONTINUOUS
 66
     1
 40
0.004390
 41
0.004390
  0
VERTEX
  8
LAYER_1
 62
    39
  6
CONTINUOUS
 10
-0.037004
 20
0.764496
  0
VERTEX
  8
LAYER_1
 62
    39
  6
CONTINUOUS
 10
0.011996
 20
0.764496
  0
VERTEX
  8
LAYER_1
 62
    39
  6
CONTINUOUS
 10
0.011996
 20
0.762496
  0
VERTEX
  8
LAYER_1
 62
    39
  6
CONTINUOUS
 10
-0.037004
 20
0.762496
  0
VERTEX
  8
LAYER_1
 62
    39
  6
CONTINUOUS
 10
-0.037004
 20
0.764496
  0
VERTEX
  8
LAYER_1
 62
    39
  6
CONTINUOUS
 10
-0.037004
 20
0.763496
  0
VERTEX
  8
LAYER_1
 62
    39
  6
CONTINUOUS
 10
0.011996
 20
0.763496
  0
SEQEND
  8
0
  0
POLYLINE
  8
LAYER_1
 62
    39
  6
CONTINUOUS
 66
     1
 40
0.004390
 41
0.004390
  0
VERTEX
  8
LAYER_1
 62
    39
  6
CONTINUOUS
 10
0.061996
 20
0.857496
  0
VERTEX
  8
LAYER_1
 62
    39
  6
CONTINUOUS
 10
0.061996
 20
0.917496
  0
VERTEX
  8
LAYER_1
 62
    39
  6
CONTINUOUS
 10
0.092996
 20
0.917496
  0
VERTEX
  8
LAYER_1
 62
    39
  6
CONTINUOUS
 10
0.102996
 20
0.908496
  0
VERTEX
  8
LAYER_1
 62
    39
  6
CONTINUOUS
 10
0.102996
 20
0.898496
  0
VERTEX
  8
LAYER_1
 62
    39
  6
CONTINUOUS
 10
0.092996
 20
0.888496
  0
VERTEX
  8
LAYER_1
 62
    39
  6
CONTINUOUS
 10
0.061996
 20
0.888496
  0
VERTEX
  8
LAYER_1
 62
    39
  6
CONTINUOUS
 10
0.071996
 20
0.888496
  0
VERTEX
  8
LAYER_1
 62
    39
  6
CONTINUOUS
 10
0.102996
 20
0.857496
  0
SEQEND
  8
0
  0
POLYLINE
  8
LAYER_1
 62
    39
  6
CONTINUOUS
 66
     1
 40
0.004390
 41
0.004390
  0
VERTEX
  8
LAYER_1
 62
    39
  6
CONTINUOUS
 10
0.121996
 20
0.917496
  0
VERTEX
  8
LAYER_1
 62
    39
  6
CONTINUOUS
 10
0.162996
 20
0.917496
  0
VERTEX
  8
LAYER_1
 62
    39
  6
CONTINUOUS
 10
0.162996
 20
0.908496
  0
VERTEX
  8
LAYER_1
 62
    39
  6
CONTINUOUS
 10
0.121996
 20
0.867496
  0
VERTEX
  8
LAYER_1
 62
    39
  6
CONTINUOUS
 10
0.121996
 20
0.857496
  0
SEQEND
  8
0
  0
POLYLINE
  8
LAYER_1
 62
    39
  6
CONTINUOUS
 66
     1
 40
0.004390
 41
0.004390
  0
VERTEX
  8
LAYER_1
 62
    39
  6
CONTINUOUS
 10
0.061996
 20
0.937496
  0
VERTEX
  8
LAYER_1
 62
    39
  6
CONTINUOUS
 10
0.056996
 20
0.937496
  0
VERTEX
  8
LAYER_1
 62
    39
  6
CONTINUOUS
 10
0.051996
 20
0.936496
  0
VERTEX
  8
LAYER_1
 62
    39
  6
CONTINUOUS
 10
0.047996
 20
0.935496
  0
VERTEX
  8
LAYER_1
 62
    39
  6
CONTINUOUS
 10
0.042996
 20
0.933496
  0
VERTEX
  8
LAYER_1
 62
    39
  6
CONTINUOUS
 10
0.038996
 20
0.931496
  0
VERTEX
  8
LAYER_1
 62
    39
  6
CONTINUOUS
 10
0.033996
 20
0.928496
  0
VERTEX
  8
LAYER_1
 62
    39
  6
CONTINUOUS
 10
0.029996
 20
0.925496
  0
VERTEX
  8
LAYER_1
 62
    39
  6
CONTINUOUS
 10
0.025996
 20
0.922496
  0
VERTEX
  8
LAYER_1
 62
    39
  6
CONTINUOUS
 10
0.022996
 20
0.918496
  0
VERTEX
  8
LAYER_1
 62
    39
  6
CONTINUOUS
 10
0.019996
 20
0.913496
  0
VERTEX
  8
LAYER_1
 62
    39
  6
CONTINUOUS
 10
0.017996
 20
0.910496
  0
VERTEX
  8
LAYER_1
 62
    39
  6
CONTINUOUS
 10
0.015996
 20
0.905496
  0
VERTEX
  8
LAYER_1
 62
    39
  6
CONTINUOUS
 10
0.013996
 20
0.900496
  0
VERTEX
  8
LAYER_1
 62
    39
  6
CONTINUOUS
 10
0.012996
 20
0.895496
  0
VERTEX
  8
LAYER_1
 62
    39
  6
CONTINUOUS
 10
0.011996
 20
0.890496
  0
VERTEX
  8
LAYER_1
 62
    39
  6
CONTINUOUS
 10
0.011996
 20
0.885496
  0
VERTEX
  8
LAYER_1
 62
    39
  6
CONTINUOUS
 10
0.012996
 20
0.880496
  0
VERTEX
  8
LAYER_1
 62
    39
  6
CONTINUOUS
 10
0.013996
 20
0.875496
  0
VERTEX
  8
LAYER_1
 62
    39
  6
CONTINUOUS
 10
0.015996
 20
0.870496
  0
VERTEX
  8
LAYER_1
 62
    39
  6
CONTINUOUS
 10
0.017996
 20
0.865496
  0
VERTEX
  8
LAYER_1
 62
    39
  6
CONTINUOUS
 10
0.019996
 20
0.861496
  0
VERTEX
  8
LAYER_1
 62
    39
  6
CONTINUOUS
 10
0.022996
 20
0.857496
  0
VERTEX
  8
LAYER_1
 62
    39
  6
CONTINUOUS
 10
0.025996
 20
0.853496
  0
VERTEX
  8
LAYER_1
 62
    39
  6
CONTINUOUS
 10
0.029996
 20
0.850496
  0
VERTEX
  8
LAYER_1
 62
    39
  6
CONTINUOUS
 10
0.033996
 20
0.847496
  0
VERTEX
  8
LAYER_1
 62
    39
  6
CONTINUOUS
 10
0.038996
 20
0.844496
  0
VERTEX
  8
LAYER_1
 62
    39
  6
CONTINUOUS
 10
0.042996
 20
0.842496
  0
VERTEX
  8
LAYER_1
 62
    39
  6
CONTINUOUS
 10
0.047996
 20
0.840496
  0
VERTEX
  8
LAYER_1
 62
    39
  6
CONTINUOUS
 10
0.051996
 20
0.839496
  0
VERTEX
  8
LAYER_1
 62
    39
  6
CONTINUOUS
 10
0.056996
 20
0.838496
  0
VERTEX
  8
LAYER_1
 62
    39
  6
CONTINUOUS
 10
0.061996
 20
0.838496
  0
SEQEND
  8
0
  0
POLYLINE
  8
LAYER_1
 62
    39
  6
CONTINUOUS
 66
     1
 40
0.004390
 41
0.004390
  0
VERTEX
  8
LAYER_1
 62
    39
  6
CONTINUOUS
 10
-0.012004
 20
0.888496
  0
VERTEX
  8
LAYER_1
 62
    39
  6
CONTINUOUS
 10
-0.012004
 20
1.088496
  0
SEQEND
  8
0
  0
POLYLINE
  8
LAYER_1
 62
    39
  6
CONTINUOUS
 66
     1
 40
0.004390
 41
0.004390
 70
     1
  0
VERTEX
  8
LAYER_1
 62
    39
  6
CONTINUOUS
 10
-0.012004
 20
1.088496
  0
VERTEX
  8
LAYER_1
 62
    39
  6
CONTINUOUS
 10
-0.012004
 20
1.093496
  0
VERTEX
  8
LAYER_1
 62
    39
  6
CONTINUOUS
 10
-0.013004
 20
1.098496
  0
VERTEX
  8
LAYER_1
 62
    39
  6
CONTINUOUS
 10
-0.014004
 20
1.102496
  0
VERTEX
  8
LAYER_1
 62
    39
  6
CONTINUOUS
 10
-0.016004
 20
1.107496
  0
VERTEX
  8
LAYER_1
 62
    39
  6
CONTINUOUS
 10
-0.018004
 20
1.111496
  0
VERTEX
  8
LAYER_1
 62
    39
  6
CONTINUOUS
 10
-0.021004
 20
1.116496
  0
VERTEX
  8
LAYER_1
 62
    39
  6
CONTINUOUS
 10
-0.024004
 20
1.120496
  0
VERTEX
  8
LAYER_1
 62
    39
  6
CONTINUOUS
 10
-0.028004
 20
1.124496
  0
VERTEX
  8
LAYER_1
 62
    39
  6
CONTINUOUS
 10
-0.032004
 20
1.127496
  0
VERTEX
  8
LAYER_1
 62
    39
  6
CONTINUOUS
 10
-0.036004
 20
1.130496
  0
VERTEX
  8
LAYER_1
 62
    39
  6
CONTINUOUS
 10
-0.040004
 20
1.132496
  0
VERTEX
  8
LAYER_1
 62
    39
  6
CONTINUOUS
 10
-0.045004
 20
1.134496
  0
VERTEX
  8
LAYER_1
 62
    39
  6
CONTINUOUS
 10
-0.050004
 20
1.136496
  0
VERTEX
  8
LAYER_1
 62
    39
  6
CONTINUOUS
 10
-0.055004
 20
1.137496
  0
VERTEX
  8
LAYER_1
 62
    39
  6
CONTINUOUS
 10
-0.060004
 20
1.138496
  0
VERTEX
  8
LAYER_1
 62
    39
  6
CONTINUOUS
 10
-0.065004
 20
1.138496
  0
VERTEX
  8
LAYER_1
 62
    39
  6
CONTINUOUS
 10
-0.070004
 20
1.137496
  0
VERTEX
  8
LAYER_1
 62
    39
  6
CONTINUOUS
 10
-0.075004
 20
1.136496
  0
VERTEX
  8
LAYER_1
 62
    39
  6
CONTINUOUS
 10
-0.079004
 20
1.134496
  0
VERTEX
  8
LAYER_1
 62
    39
  6
CONTINUOUS
 10
-0.084004
 20
1.132496
  0
VERTEX
  8
LAYER_1
 62
    39
  6
CONTINUOUS
 10
-0.089004
 20
1.130496
  0
VERTEX
  8
LAYER_1
 62
    39
  6
CONTINUOUS
 10
-0.093004
 20
1.127496
  0
VERTEX
  8
LAYER_1
 62
    39
  6
CONTINUOUS
 10
-0.097004
 20
1.124496
  0
VERTEX
  8
LAYER_1
 62
    39
  6
CONTINUOUS
 10
-0.100004
 20
1.120496
  0
VERTEX
  8
LAYER_1
 62
    39
  6
CONTINUOUS
 10
-0.103004
 20
1.116496
  0
VERTEX
  8
LAYER_1
 62
    39
  6
CONTINUOUS
 10
-0.106004
 20
1.111496
  0
VERTEX
  8
LAYER_1
 62
    39
  6
CONTINUOUS
 10
-0.108004
 20
1.107496
  0
VERTEX
  8
LAYER_1
 62
    39
  6
CONTINUOUS
 10
-0.110004
 20
1.102496
  0
VERTEX
  8
LAYER_1
 62
    39
  6
CONTINUOUS
 10
-0.112004
 20
1.098496
  0
VERTEX
  8
LAYER_1
 62
    39
  6
CONTINUOUS
 10
-0.112004
 20
1.093496
  0
VERTEX
  8
LAYER_1
 62
    39
  6
CONTINUOUS
 10
-0.113004
 20
1.088496
  0
SEQEND
  8
0
  0
POLYLINE
  8
LAYER_1
 62
    39
  6
CONTINUOUS
 66
     1
 40
0.004390
 41
0.004390
  0
VERTEX
  8
LAYER_1
 62
    39
  6
CONTINUOUS
 10
0.037996
 20
1.112496
  0
VERTEX
  8
LAYER_1
 62
    39
  6
CONTINUOUS
 10
0.237996
 20
1.112496
  0
SEQEND
  8
0
  0
POLYLINE
  8
LAYER_1
 62
    39
  6
CONTINUOUS
 66
     1
 40
0.004390
 41
0.004390
  0
VERTEX
  8
LAYER_1
 62
    39
  6
CONTINUOUS
 10
0.287996
 20
1.163496
  0
VERTEX
  8
LAYER_1
 62
    39
  6
CONTINUOUS
 10
0.287996
 20
1.167496
  0
VERTEX
  8
LAYER_1
 62
    39
  6
CONTINUOUS
 10
0.286996
 20
1.172496
  0
VERTEX
  8
LAYER_1
 62
    39
  6
CONTINUOUS
 10
0.285996
 20
1.177496
  0
VERTEX
  8
LAYER_1
 62
    39
  6
CONTINUOUS
 10
0.283996
 20
1.181496
  0
VERTEX
  8
LAYER_1
 62
    39
  6
CONTINUOUS
 10
0.281996
 20
1.186496
  0
VERTEX
  8
LAYER_1
 62
    39
  6
CONTINUOUS
 10
0.278996
 20
1.190496
  0
VERTEX
  8
LAYER_1
 62
    39
  6
CONTINUOUS
 10
0.275996
 20
1.194496
  0
VERTEX
  8
LAYER_1
 62
    39
  6
CONTINUOUS
 10
0.272996
 20
1.198496
  0
VERTEX
  8
LAYER_1
 62
    39
  6
CONTINUOUS
 10
0.268996
 20
1.201496
  0
VERTEX
  8
LAYER_1
 62
    39
  6
CONTINUOUS
 10
0.264996
 20
1.204496
  0
VERTEX
  8
LAYER_1
 62
    39
  6
CONTINUOUS
 10
0.260996
 20
1.207496
  0
VERTEX
  8
LAYER_1
 62
    39
  6
CONTINUOUS
 10
0.255996
 20
1.209496
  0
VERTEX
  8
LAYER_1
 62
    39
  6
CONTINUOUS
 10
0.251996
 20
1.211496
  0
VERTEX
  8
LAYER_1
 62
    39
  6
CONTINUOUS
 10
0.246996
 20
1.212496
  0
VERTEX
  8
LAYER_1
 62
    39
  6
CONTINUOUS
 10
0.241996
 20
1.213496
  0
VERTEX
  8
LAYER_1
 62
    39
  6
CONTINUOUS
 10
0.237996
 20
1.213496
  0
SEQEND
  8
0
  0
POLYLINE
  8
LAYER_1
 62
    39
  6
CONTINUOUS
 66
     1
 40
0.004390
 41
0.004390
  0
VERTEX
  8
LAYER_1
 62
    39
  6
CONTINUOUS
 10
0.237996
 20
1.112496
  0
VERTEX
  8
LAYER_1
 62
    39
  6
CONTINUOUS
 10
0.241996
 20
1.112496
  0
VERTEX
  8
LAYER_1
 62
    39
  6
CONTINUOUS
 10
0.246996
 20
1.113496
  0
VERTEX
  8
LAYER_1
 62
    39
  6
CONTINUOUS
 10
0.251996
 20
1.114496
  0
VERTEX
  8
LAYER_1
 62
    39
  6
CONTINUOUS
 10
0.255996
 20
1.116496
  0
VERTEX
  8
LAYER_1
 62
    39
  6
CONTINUOUS
 10
0.260996
 20
1.118496
  0
VERTEX
  8
LAYER_1
 62
    39
  6
CONTINUOUS
 10
0.264996
 20
1.121496
  0
VERTEX
  8
LAYER_1
 62
    39
  6
CONTINUOUS
 10
0.268996
 20
1.124496
  0
VERTEX
  8
LAYER_1
 62
    39
  6
CONTINUOUS
 10
0.272996
 20
1.127496
  0
VERTEX
  8
LAYER_1
 62
    39
  6
CONTINUOUS
 10
0.275996
 20
1.131496
  0
VERTEX
  8
LAYER_1
 62
    39
  6
CONTINUOUS
 10
0.278996
 20
1.135496
  0
VERTEX
  8
LAYER_1
 62
    39
  6
CONTINUOUS
 10
0.281996
 20
1.139496
  0
VERTEX
  8
LAYER_1
 62
    39
  6
CONTINUOUS
 10
0.283996
 20
1.144496
  0
VERTEX
  8
LAYER_1
 62
    39
  6
CONTINUOUS
 10
0.285996
 20
1.148496
  0
VERTEX
  8
LAYER_1
 62
    39
  6
CONTINUOUS
 10
0.286996
 20
1.153496
  0
VERTEX
  8
LAYER_1
 62
    39
  6
CONTINUOUS
 10
0.287996
 20
1.158496
  0
VERTEX
  8
LAYER_1
 62
    39
  6
CONTINUOUS
 10
0.287996
 20
1.163496
  0
SEQEND
  8
0
  0
POLYLINE
  8
LAYER_1
 62
    39
  6
CONTINUOUS
 66
     1
 40
0.004390
 41
0.004390
  0
VERTEX
  8
LAYER_1
 62
    39
  6
CONTINUOUS
 10
0.237996
 20
1.213496
  0
VERTEX
  8
LAYER_1
 62
    39
  6
CONTINUOUS
 10
0.037996
 20
1.213496
  0
SEQEND
  8
0
  0
POLYLINE
  8
LAYER_1
 62
    39
  6
CONTINUOUS
 66
     1
 40
0.004390
 41
0.004390
  0
VERTEX
  8
LAYER_1
 62
    39
  6
CONTINUOUS
 10
0.037996
 20
1.213496
  0
VERTEX
  8
LAYER_1
 62
    39
  6
CONTINUOUS
 10
0.032996
 20
1.213496
  0
VERTEX
  8
LAYER_1
 62
    39
  6
CONTINUOUS
 10
0.027996
 20
1.212496
  0
VERTEX
  8
LAYER_1
 62
    39
  6
CONTINUOUS
 10
0.022996
 20
1.210496
  0
VERTEX
  8
LAYER_1
 62
    39
  6
CONTINUOUS
 10
0.017996
 20
1.209496
  0
VERTEX
  8
LAYER_1
 62
    39
  6
CONTINUOUS
 10
0.012996
 20
1.206496
  0
VERTEX
  8
LAYER_1
 62
    39
  6
CONTINUOUS
 10
0.008996
 20
1.204496
  0
VERTEX
  8
LAYER_1
 62
    39
  6
CONTINUOUS
 10
0.004996
 20
1.201496
  0
VERTEX
  8
LAYER_1
 62
    39
  6
CONTINUOUS
 10
0.000996
 20
1.197496
  0
VERTEX
  8
LAYER_1
 62
    39
  6
CONTINUOUS
 10
-0.002004
 20
1.193496
  0
VERTEX
  8
LAYER_1
 62
    39
  6
CONTINUOUS
 10
-0.005004
 20
1.189496
  0
VERTEX
  8
LAYER_1
 62
    39
  6
CONTINUOUS
 10
-0.008004
 20
1.184496
  0
VERTEX
  8
LAYER_1
 62
    39
  6
CONTINUOUS
 10
-0.010004
 20
1.180496
  0
VERTEX
  8
LAYER_1
 62
    39
  6
CONTINUOUS
 10
-0.011004
 20
1.175496
  0
VERTEX
  8
LAYER_1
 62
    39
  6
CONTINUOUS
 10
-0.012004
 20
1.170496
  0
VERTEX
  8
LAYER_1
 62
    39
  6
CONTINUOUS
 10
-0.012004
 20
1.165496
  0
VERTEX
  8
LAYER_1
 62
    39
  6
CONTINUOUS
 10
-0.012004
 20
1.160496
  0
VERTEX
  8
LAYER_1
 62
    39
  6
CONTINUOUS
 10
-0.012004
 20
1.155496
  0
VERTEX
  8
LAYER_1
 62
    39
  6
CONTINUOUS
 10
-0.011004
 20
1.150496
  0
VERTEX
  8
LAYER_1
 62
    39
  6
CONTINUOUS
 10
-0.010004
 20
1.145496
  0
VERTEX
  8
LAYER_1
 62
    39
  6
CONTINUOUS
 10
-0.008004
 20
1.141496
  0
VERTEX
  8
LAYER_1
 62
    39
  6
CONTINUOUS
 10
-0.005004
 20
1.136496
  0
VERTEX
  8
LAYER_1
 62
    39
  6
CONTINUOUS
 10
-0.002004
 20
1.132496
  0
VERTEX
  8
LAYER_1
 62
    39
  6
CONTINUOUS
 10
0.000996
 20
1.128496
  0
VERTEX
  8
LAYER_1
 62
    39
  6
CONTINUOUS
 10
0.004996
 20
1.124496
  0
VERTEX
  8
LAYER_1
 62
    39
  6
CONTINUOUS
 10
0.008996
 20
1.121496
  0
VERTEX
  8
LAYER_1
 62
    39
  6
CONTINUOUS
 10
0.012996
 20
1.119496
  0
VERTEX
  8
LAYER_1
 62
    39
  6
CONTINUOUS
 10
0.017996
 20
1.116496
  0
VERTEX
  8
LAYER_1
 62
    39
  6
CONTINUOUS
 10
0.022996
 20
1.115496
  0
VERTEX
  8
LAYER_1
 62
    39
  6
CONTINUOUS
 10
0.027996
 20
1.113496
  0
VERTEX
  8
LAYER_1
 62
    39
  6
CONTINUOUS
 10
0.032996
 20
1.112496
  0
VERTEX
  8
LAYER_1
 62
    39
  6
CONTINUOUS
 10
0.037996
 20
1.112496
  0
SEQEND
  8
0
  0
POLYLINE
  8
LAYER_1
 62
    39
  6
CONTINUOUS
 66
     1
 40
0.004390
 41
0.004390
  0
VERTEX
  8
LAYER_1
 62
    39
  6
CONTINUOUS
 10
0.112996
 20
1.133496
  0
VERTEX
  8
LAYER_1
 62
    39
  6
CONTINUOUS
 10
0.121996
 20
1.143496
  0
VERTEX
  8
LAYER_1
 62
    39
  6
CONTINUOUS
 10
0.112996
 20
1.133496
  0
VERTEX
  8
LAYER_1
 62
    39
  6
CONTINUOUS
 10
0.092996
 20
1.133496
  0
VERTEX
  8
LAYER_1
 62
    39
  6
CONTINUOUS
 10
0.082996
 20
1.143496
  0
VERTEX
  8
LAYER_1
 62
    39
  6
CONTINUOUS
 10
0.082996
 20
1.182496
  0
VERTEX
  8
LAYER_1
 62
    39
  6
CONTINUOUS
 10
0.092996
 20
1.192496
  0
VERTEX
  8
LAYER_1
 62
    39
  6
CONTINUOUS
 10
0.112996
 20
1.192496
  0
VERTEX
  8
LAYER_1
 62
    39
  6
CONTINUOUS
 10
0.121996
 20
1.182496
  0
SEQEND
  8
0
  0
POLYLINE
  8
LAYER_1
 62
    39
  6
CONTINUOUS
 66
     1
 40
0.004390
 41
0.004390
  0
VERTEX
  8
LAYER_1
 62
    39
  6
CONTINUOUS
 10
0.141996
 20
1.182496
  0
VERTEX
  8
LAYER_1
 62
    39
  6
CONTINUOUS
 10
0.152996
 20
1.192496
  0
VERTEX
  8
LAYER_1
 62
    39
  6
CONTINUOUS
 10
0.172996
 20
1.192496
  0
VERTEX
  8
LAYER_1
 62
    39
  6
CONTINUOUS
 10
0.181996
 20
1.182496
  0
VERTEX
  8
LAYER_1
 62
    39
  6
CONTINUOUS
 10
0.181996
 20
1.172496
  0
VERTEX
  8
LAYER_1
 62
    39
  6
CONTINUOUS
 10
0.172996
 20
1.163496
  0
VERTEX
  8
LAYER_1
 62
    39
  6
CONTINUOUS
 10
0.162996
 20
1.163496
  0
VERTEX
  8
LAYER_1
 62
    39
  6
CONTINUOUS
 10
0.172996
 20
1.163496
  0
VERTEX
  8
LAYER_1
 62
    39
  6
CONTINUOUS
 10
0.181996
 20
1.153496
  0
VERTEX
  8
LAYER_1
 62
    39
  6
CONTINUOUS
 10
0.181996
 20
1.143496
  0
VERTEX
  8
LAYER_1
 62
    39
  6
CONTINUOUS
 10
0.172996
 20
1.133496
  0
VERTEX
  8
LAYER_1
 62
    39
  6
CONTINUOUS
 10
0.152996
 20
1.133496
  0
VERTEX
  8
LAYER_1
 62
    39
  6
CONTINUOUS
 10
0.141996
 20
1.143496
  0
SEQEND
  8
0
  0
POLYLINE
  8
LAYER_1
 62
    39
  6
CONTINUOUS
 66
     1
 40
0.004390
 41
0.004390
 70
     1
  0
VERTEX
  8
LAYER_1
 62
    39
  6
CONTINUOUS
 10
0.311996
 20
1.062496
  0
VERTEX
  8
LAYER_1
 62
    39
  6
CONTINUOUS
 10
0.311996
 20
1.068496
  0
VERTEX
  8
LAYER_1
 62
    39
  6
CONTINUOUS
 10
0.310996
 20
1.073496
  0
VERTEX
  8
LAYER_1
 62
    39
  6
CONTINUOUS
 10
0.309996
 20
1.078496
  0
VERTEX
  8
LAYER_1
 62
    39
  6
CONTINUOUS
 10
0.307996
 20
1.082496
  0
VERTEX
  8
LAYER_1
 62
    39
  6
CONTINUOUS
 10
0.305996
 20
1.087496
  0
VERTEX
  8
LAYER_1
 62
    39
  6
CONTINUOUS
 10
0.302996
 20
1.091496
  0
VERTEX
  8
LAYER_1
 62
    39
  6
CONTINUOUS
 10
0.299996
 20
1.095496
  0
VERTEX
  8
LAYER_1
 62
    39
  6
CONTINUOUS
 10
0.296996
 20
1.099496
  0
VERTEX
  8
LAYER_1
 62
    39
  6
CONTINUOUS
 10
0.292996
 20
1.102496
  0
VERTEX
  8
LAYER_1
 62
    39
  6
CONTINUOUS
 10
0.288996
 20
1.105496
  0
VERTEX
  8
LAYER_1
 62
    39
  6
CONTINUOUS
 10
0.284996
 20
1.107496
  0
VERTEX
  8
LAYER_1
 62
    39
  6
CONTINUOUS
 10
0.279996
 20
1.109496
  0
VERTEX
  8
LAYER_1
 62
    39
  6
CONTINUOUS
 10
0.274996
 20
1.111496
  0
VERTEX
  8
LAYER_1
 62
    39
  6
CONTINUOUS
 10
0.269996
 20
1.112496
  0
VERTEX
  8
LAYER_1
 62
    39
  6
CONTINUOUS
 10
0.264996
 20
1.112496
  0
VERTEX
  8
LAYER_1
 62
    39
  6
CONTINUOUS
 10
0.259996
 20
1.112496
  0
VERTEX
  8
LAYER_1
 62
    39
  6
CONTINUOUS
 10
0.254996
 20
1.112496
  0
VERTEX
  8
LAYER_1
 62
    39
  6
CONTINUOUS
 10
0.249996
 20
1.111496
  0
VERTEX
  8
LAYER_1
 62
    39
  6
CONTINUOUS
 10
0.244996
 20
1.109496
  0
VERTEX
  8
LAYER_1
 62
    39
  6
CONTINUOUS
 10
0.239996
 20
1.107496
  0
VERTEX
  8
LAYER_1
 62
    39
  6
CONTINUOUS
 10
0.236996
 20
1.105496
  0
VERTEX
  8
LAYER_1
 62
    39
  6
CONTINUOUS
 10
0.231996
 20
1.102496
  0
VERTEX
  8
LAYER_1
 62
    39
  6
CONTINUOUS
 10
0.227996
 20
1.099496
  0
VERTEX
  8
LAYER_1
 62
    39
  6
CONTINUOUS
 10
0.224996
 20
1.095496
  0
VERTEX
  8
LAYER_1
 62
    39
  6
CONTINUOUS
 10
0.221996
 20
1.091496
  0
VERTEX
  8
LAYER_1
 62
    39
  6
CONTINUOUS
 10
0.218996
 20
1.087496
  0
VERTEX
  8
LAYER_1
 62
    39
  6
CONTINUOUS
 10
0.216996
 20
1.082496
  0
VERTEX
  8
LAYER_1
 62
    39
  6
CONTINUOUS
 10
0.214996
 20
1.078496
  0
VERTEX
  8
LAYER_1
 62
    39
  6
CONTINUOUS
 10
0.213996
 20
1.073496
  0
VERTEX
  8
LAYER_1
 62
    39
  6
CONTINUOUS
 10
0.212996
 20
1.068496
  0
VERTEX
  8
LAYER_1
 62
    39
  6
CONTINUOUS
 10
0.212996
 20
1.062496
  0
SEQEND
  8
0
  0
POLYLINE
  8
LAYER_1
 62
    39
  6
CONTINUOUS
 66
     1
 40
0.004390
 41
0.004390
  0
VERTEX
  8
LAYER_1
 62
    39
  6
CONTINUOUS
 10
0.316996
 20
1.192496
  0
VERTEX
  8
LAYER_1
 62
    39
  6
CONTINUOUS
 10
0.316996
 20
1.232496
  0
VERTEX
  8
LAYER_1
 62
    39
  6
CONTINUOUS
 10
0.316996
 20
1.213496
  0
VERTEX
  8
LAYER_1
 62
    39
  6
CONTINUOUS
 10
0.376996
 20
1.213496
  0
SEQEND
  8
0
  0
POLYLINE
  8
LAYER_1
 62
    39
  6
CONTINUOUS
 66
     1
 40
0.004390
 41
0.004390
  0
VERTEX
  8
LAYER_1
 62
    39
  6
CONTINUOUS
 10
0.357996
 20
1.252496
  0
VERTEX
  8
LAYER_1
 62
    39
  6
CONTINUOUS
 10
0.357996
 20
1.292496
  0
VERTEX
  8
LAYER_1
 62
    39
  6
CONTINUOUS
 10
0.357996
 20
1.252496
  0
VERTEX
  8
LAYER_1
 62
    39
  6
CONTINUOUS
 10
0.347996
 20
1.252496
  0
VERTEX
  8
LAYER_1
 62
    39
  6
CONTINUOUS
 10
0.316996
 20
1.283496
  0
VERTEX
  8
LAYER_1
 62
    39
  6
CONTINUOUS
 10
0.376996
 20
1.283496
  0
SEQEND
  8
0
  0
POLYLINE
  8
LAYER_1
 62
    39
  6
CONTINUOUS
 66
     1
 40
0.004390
 41
0.004390
 70
     1
  0
VERTEX
  8
LAYER_1
 62
    39
  6
CONTINUOUS
 10
0.386996
 20
1.362496
  0
VERTEX
  8
LAYER_1
 62
    39
  6
CONTINUOUS
 10
0.386996
 20
1.367496
  0
VERTEX
  8
LAYER_1
 62
    39
  6
CONTINUOUS
 10
0.385996
 20
1.372496
  0
VERTEX
  8
LAYER_1
 62
    39
  6
CONTINUOUS
 10
0.384996
 20
1.377496
  0
VERTEX
  8
LAYER_1
 62
    39
  6
CONTINUOUS
 10
0.382996
 20
1.382496
  0
VERTEX
  8
LAYER_1
 62
    39
  6
CONTINUOUS
 10
0.380996
 20
1.386496
  0
VERTEX
  8
LAYER_1
 62
    39
  6
CONTINUOUS
 10
0.378996
 20
1.391496
  0
VERTEX
  8
LAYER_1
 62
    39
  6
CONTINUOUS
 10
0.375996
 20
1.395496
  0
VERTEX
  8
LAYER_1
 62
    39
  6
CONTINUOUS
 10
0.371996
 20
1.399496
  0
VERTEX
  8
LAYER_1
 62
    39
  6
CONTINUOUS
 10
0.367996
 20
1.402496
  0
VERTEX
  8
LAYER_1
 62
    39
  6
CONTINUOUS
 10
0.363996
 20
1.405496
  0
VERTEX
  8
LAYER_1
 62
    39
  6
CONTINUOUS
 10
0.360996
 20
1.407496
  0
VERTEX
  8
LAYER_1
 62
    39
  6
CONTINUOUS
 10
0.355996
 20
1.409496
  0
VERTEX
  8
LAYER_1
 62
    39
  6
CONTINUOUS
 10
0.350996
 20
1.411496
  0
VERTEX
  8
LAYER_1
 62
    39
  6
CONTINUOUS
 10
0.345996
 20
1.412496
  0
VERTEX
  8
LAYER_1
 62
    39
  6
CONTINUOUS
 10
0.340996
 20
1.413496
  0
VERTEX
  8
LAYER_1
 62
    39
  6
CONTINUOUS
 10
0.335996
 20
1.413496
  0
VERTEX
  8
LAYER_1
 62
    39
  6
CONTINUOUS
 10
0.330996
 20
1.413496
  0
VERTEX
  8
LAYER_1
 62
    39
  6
CONTINUOUS
 10
0.325996
 20
1.412496
  0
VERTEX
  8
LAYER_1
 62
    39
  6
CONTINUOUS
 10
0.320996
 20
1.410496
  0
VERTEX
  8
LAYER_1
 62
    39
  6
CONTINUOUS
 10
0.316996
 20
1.409496
  0
VERTEX
  8
LAYER_1
 62
    39
  6
CONTINUOUS
 10
0.311996
 20
1.406496
  0
VERTEX
  8
LAYER_1
 62
    39
  6
CONTINUOUS
 10
0.307996
 20
1.403496
  0
VERTEX
  8
LAYER_1
 62
    39
  6
CONTINUOUS
 10
0.303996
 20
1.400496
  0
VERTEX
  8
LAYER_1
 62
    39
  6
CONTINUOUS
 10
0.299996
 20
1.397496
  0
VERTEX
  8
LAYER_1
 62
    39
  6
CONTINUOUS
 10
0.297996
 20
1.393496
  0
VERTEX
  8
LAYER_1
 62
    39
  6
CONTINUOUS
 10
0.294996
 20
1.389496
  0
VERTEX
  8
LAYER_1
 62
    39
  6
CONTINUOUS
 10
0.292996
 20
1.384496
  0
VERTEX
  8
LAYER_1
 62
    39
  6
CONTINUOUS
 10
0.290996
 20
1.380496
  0
VERTEX
  8
LAYER_1
 62
    39
  6
CONTINUOUS
 10
0.288996
 20
1.375496
  0
VERTEX
  8
LAYER_1
 62
    39
  6
CONTINUOUS
 10
0.287996
 20
1.370496
  0
VERTEX
  8
LAYER_1
 62
    39
  6
CONTINUOUS
 10
0.287996
 20
1.365496
  0
VERTEX
  8
LAYER_1
 62
    39
  6
CONTINUOUS
 10
0.287996
 20
1.360496
  0
VERTEX
  8
LAYER_1
 62
    39
  6
CONTINUOUS
 10
0.287996
 20
1.355496
  0
VERTEX
  8
LAYER_1
 62
    39
  6
CONTINUOUS
 10
0.288996
 20
1.350496
  0
VERTEX
  8
LAYER_1
 62
    39
  6
CONTINUOUS
 10
0.290996
 20
1.346496
  0
VERTEX
  8
LAYER_1
 62
    39
  6
CONTINUOUS
 10
0.292996
 20
1.341496
  0
VERTEX
  8
LAYER_1
 62
    39
  6
CONTINUOUS
 10
0.294996
 20
1.337496
  0
VERTEX
  8
LAYER_1
 62
    39
  6
CONTINUOUS
 10
0.297996
 20
1.333496
  0
VERTEX
  8
LAYER_1
 62
    39
  6
CONTINUOUS
 10
0.299996
 20
1.329496
  0
VERTEX
  8
LAYER_1
 62
    39
  6
CONTINUOUS
 10
0.303996
 20
1.325496
  0
VERTEX
  8
LAYER_1
 62
    39
  6
CONTINUOUS
 10
0.307996
 20
1.322496
  0
VERTEX
  8
LAYER_1
 62
    39
  6
CONTINUOUS
 10
0.311996
 20
1.319496
  0
VERTEX
  8
LAYER_1
 62
    39
  6
CONTINUOUS
 10
0.316996
 20
1.317496
  0
VERTEX
  8
LAYER_1
 62
    39
  6
CONTINUOUS
 10
0.320996
 20
1.315496
  0
VERTEX
  8
LAYER_1
 62
    39
  6
CONTINUOUS
 10
0.325996
 20
1.314496
  0
VERTEX
  8
LAYER_1
 62
    39
  6
CONTINUOUS
 10
0.330996
 20
1.313496
  0
VERTEX
  8
LAYER_1
 62
    39
  6
CONTINUOUS
 10
0.335996
 20
1.312496
  0
VERTEX
  8
LAYER_1
 62
    39
  6
CONTINUOUS
 10
0.340996
 20
1.313496
  0
VERTEX
  8
LAYER_1
 62
    39
  6
CONTINUOUS
 10
0.345996
 20
1.313496
  0
VERTEX
  8
LAYER_1
 62
    39
  6
CONTINUOUS
 10
0.350996
 20
1.314496
  0
VERTEX
  8
LAYER_1
 62
    39
  6
CONTINUOUS
 10
0.355996
 20
1.316496
  0
VERTEX
  8
LAYER_1
 62
    39
  6
CONTINUOUS
 10
0.360996
 20
1.318496
  0
VERTEX
  8
LAYER_1
 62
    39
  6
CONTINUOUS
 10
0.363996
 20
1.321496
  0
VERTEX
  8
LAYER_1
 62
    39
  6
CONTINUOUS
 10
0.367996
 20
1.323496
  0
VERTEX
  8
LAYER_1
 62
    39
  6
CONTINUOUS
 10
0.371996
 20
1.327496
  0
VERTEX
  8
LAYER_1
 62
    39
  6
CONTINUOUS
 10
0.375996
 20
1.331496
  0
VERTEX
  8
LAYER_1
 62
    39
  6
CONTINUOUS
 10
0.378996
 20
1.335496
  0
VERTEX
  8
LAYER_1
 62
    39
  6
CONTINUOUS
 10
0.380996
 20
1.339496
  0
VERTEX
  8
LAYER_1
 62
    39
  6
CONTINUOUS
 10
0.382996
 20
1.343496
  0
VERTEX
  8
LAYER_1
 62
    39
  6
CONTINUOUS
 10
0.384996
 20
1.348496
  0
VERTEX
  8
LAYER_1
 62
    39
  6
CONTINUOUS
 10
0.385996
 20
1.352496
  0
VERTEX
  8
LAYER_1
 62
    39
  6
CONTINUOUS
 10
0.386996
 20
1.357496
  0
SEQEND
  8
0
  0
POLYLINE
  8
LAYER_1
 62
    39
  6
CONTINUOUS
 66
     1
 40
0.004390
 41
0.004390
  0
VERTEX
  8
LAYER_1
 62
    39
  6
CONTINUOUS
 10
0.201996
 20
1.352496
  0
VERTEX
  8
LAYER_1
 62
    39
  6
CONTINUOUS
 10
0.201996
 20
1.312496
  0
VERTEX
  8
LAYER_1
 62
    39
  6
CONTINUOUS
 10
0.201996
 20
1.352496
  0
VERTEX
  8
LAYER_1
 62
    39
  6
CONTINUOUS
 10
0.201996
 20
1.333496
  0
VERTEX
  8
LAYER_1
 62
    39
  6
CONTINUOUS
 10
0.261996
 20
1.333496
  0
SEQEND
  8
0
  0
POLYLINE
  8
LAYER_1
 62
    39
  6
CONTINUOUS
 66
     1
 40
0.004390
 41
0.004390
  0
VERTEX
  8
LAYER_1
 62
    39
  6
CONTINUOUS
 10
0.212996
 20
1.372496
  0
VERTEX
  8
LAYER_1
 62
    39
  6
CONTINUOUS
 10
0.201996
 20
1.383496
  0
VERTEX
  8
LAYER_1
 62
    39
  6
CONTINUOUS
 10
0.201996
 20
1.403496
  0
VERTEX
  8
LAYER_1
 62
    39
  6
CONTINUOUS
 10
0.212996
 20
1.413496
  0
VERTEX
  8
LAYER_1
 62
    39
  6
CONTINUOUS
 10
0.222996
 20
1.413496
  0
VERTEX
  8
LAYER_1
 62
    39
  6
CONTINUOUS
 10
0.232996
 20
1.403496
  0
VERTEX
  8
LAYER_1
 62
    39
  6
CONTINUOUS
 10
0.232996
 20
1.393496
  0
VERTEX
  8
LAYER_1
 62
    39
  6
CONTINUOUS
 10
0.232996
 20
1.403496
  0
VERTEX
  8
LAYER_1
 62
    39
  6
CONTINUOUS
 10
0.241996
 20
1.413496
  0
VERTEX
  8
LAYER_1
 62
    39
  6
CONTINUOUS
 10
0.251996
 20
1.413496
  0
VERTEX
  8
LAYER_1
 62
    39
  6
CONTINUOUS
 10
0.261996
 20
1.403496
  0
VERTEX
  8
LAYER_1
 62
    39
  6
CONTINUOUS
 10
0.261996
 20
1.383496
  0
VERTEX
  8
LAYER_1
 62
    39
  6
CONTINUOUS
 10
0.251996
 20
1.372496
  0
SEQEND
  8
0
  0
POLYLINE
  8
LAYER_1
 62
    39
  6
CONTINUOUS
 66
     1
 40
0.004390
 41
0.004390
 70
     1
  0
VERTEX
  8
LAYER_1
 62
    39
  6
CONTINUOUS
 10
0.186996
 20
1.362496
  0
VERTEX
  8
LAYER_1
 62
    39
  6
CONTINUOUS
 10
0.186996
 20
1.367496
  0
VERTEX
  8
LAYER_1
 62
    39
  6
CONTINUOUS
 10
0.185996
 20
1.372496
  0
VERTEX
  8
LAYER_1
 62
    39
  6
CONTINUOUS
 10
0.184996
 20
1.377496
  0
VERTEX
  8
LAYER_1
 62
    39
  6
CONTINUOUS
 10
0.182996
 20
1.382496
  0
VERTEX
  8
LAYER_1
 62
    39
  6
CONTINUOUS
 10
0.180996
 20
1.386496
  0
VERTEX
  8
LAYER_1
 62
    39
  6
CONTINUOUS
 10
0.177996
 20
1.391496
  0
VERTEX
  8
LAYER_1
 62
    39
  6
CONTINUOUS
 10
0.174996
 20
1.395496
  0
VERTEX
  8
LAYER_1
 62
    39
  6
CONTINUOUS
 10
0.172996
 20
1.399496
  0
VERTEX
  8
LAYER_1
 62
    39
  6
CONTINUOUS
 10
0.168996
 20
1.402496
  0
VERTEX
  8
LAYER_1
 62
    39
  6
CONTINUOUS
 10
0.164996
 20
1.405496
  0
VERTEX
  8
LAYER_1
 62
    39
  6
CONTINUOUS
 10
0.160996
 20
1.407496
  0
VERTEX
  8
LAYER_1
 62
    39
  6
CONTINUOUS
 10
0.155996
 20
1.409496
  0
VERTEX
  8
LAYER_1
 62
    39
  6
CONTINUOUS
 10
0.150996
 20
1.411496
  0
VERTEX
  8
LAYER_1
 62
    39
  6
CONTINUOUS
 10
0.145996
 20
1.412496
  0
VERTEX
  8
LAYER_1
 62
    39
  6
CONTINUOUS
 10
0.140996
 20
1.413496
  0
VERTEX
  8
LAYER_1
 62
    39
  6
CONTINUOUS
 10
0.135996
 20
1.413496
  0
VERTEX
  8
LAYER_1
 62
    39
  6
CONTINUOUS
 10
0.130996
 20
1.413496
  0
VERTEX
  8
LAYER_1
 62
    39
  6
CONTINUOUS
 10
0.125996
 20
1.412496
  0
VERTEX
  8
LAYER_1
 62
    39
  6
CONTINUOUS
 10
0.120996
 20
1.410496
  0
VERTEX
  8
LAYER_1
 62
    39
  6
CONTINUOUS
 10
0.116996
 20
1.409496
  0
VERTEX
  8
LAYER_1
 62
    39
  6
CONTINUOUS
 10
0.112996
 20
1.406496
  0
VERTEX
  8
LAYER_1
 62
    39
  6
CONTINUOUS
 10
0.108996
 20
1.403496
  0
VERTEX
  8
LAYER_1
 62
    39
  6
CONTINUOUS
 10
0.104996
 20
1.400496
  0
VERTEX
  8
LAYER_1
 62
    39
  6
CONTINUOUS
 10
0.100996
 20
1.397496
  0
VERTEX
  8
LAYER_1
 62
    39
  6
CONTINUOUS
 10
0.097996
 20
1.393496
  0
VERTEX
  8
LAYER_1
 62
    39
  6
CONTINUOUS
 10
0.094996
 20
1.389496
  0
VERTEX
  8
LAYER_1
 62
    39
  6
CONTINUOUS
 10
0.092996
 20
1.384496
  0
VERTEX
  8
LAYER_1
 62
    39
  6
CONTINUOUS
 10
0.090996
 20
1.380496
  0
VERTEX
  8
LAYER_1
 62
    39
  6
CONTINUOUS
 10
0.088996
 20
1.375496
  0
VERTEX
  8
LAYER_1
 62
    39
  6
CONTINUOUS
 10
0.087996
 20
1.370496
  0
VERTEX
  8
LAYER_1
 62
    39
  6
CONTINUOUS
 10
0.087996
 20
1.365496
  0
VERTEX
  8
LAYER_1
 62
    39
  6
CONTINUOUS
 10
0.087996
 20
1.360496
  0
VERTEX
  8
LAYER_1
 62
    39
  6
CONTINUOUS
 10
0.087996
 20
1.355496
  0
VERTEX
  8
LAYER_1
 62
    39
  6
CONTINUOUS
 10
0.088996
 20
1.350496
  0
VERTEX
  8
LAYER_1
 62
    39
  6
CONTINUOUS
 10
0.090996
 20
1.346496
  0
VERTEX
  8
LAYER_1
 62
    39
  6
CONTINUOUS
 10
0.092996
 20
1.341496
  0
VERTEX
  8
LAYER_1
 62
    39
  6
CONTINUOUS
 10
0.094996
 20
1.337496
  0
VERTEX
  8
LAYER_1
 62
    39
  6
CONTINUOUS
 10
0.097996
 20
1.333496
  0
VERTEX
  8
LAYER_1
 62
    39
  6
CONTINUOUS
 10
0.100996
 20
1.329496
  0
VERTEX
  8
LAYER_1
 62
    39
  6
CONTINUOUS
 10
0.104996
 20
1.325496
  0
VERTEX
  8
LAYER_1
 62
    39
  6
CONTINUOUS
 10
0.108996
 20
1.322496
  0
VERTEX
  8
LAYER_1
 62
    39
  6
CONTINUOUS
 10
0.112996
 20
1.319496
  0
VERTEX
  8
LAYER_1
 62
    39
  6
CONTINUOUS
 10
0.116996
 20
1.317496
  0
VERTEX
  8
LAYER_1
 62
    39
  6
CONTINUOUS
 10
0.120996
 20
1.315496
  0
VERTEX
  8
LAYER_1
 62
    39
  6
CONTINUOUS
 10
0.125996
 20
1.314496
  0
VERTEX
  8
LAYER_1
 62
    39
  6
CONTINUOUS
 10
0.130996
 20
1.313496
  0
VERTEX
  8
LAYER_1
 62
    39
  6
CONTINUOUS
 10
0.135996
 20
1.312496
  0
VERTEX
  8
LAYER_1
 62
    39
  6
CONTINUOUS
 10
0.140996
 20
1.313496
  0
VERTEX
  8
LAYER_1
 62
    39
  6
CONTINUOUS
 10
0.145996
 20
1.313496
  0
VERTEX
  8
LAYER_1
 62
    39
  6
CONTINUOUS
 10
0.150996
 20
1.314496
  0
VERTEX
  8
LAYER_1
 62
    39
  6
CONTINUOUS
 10
0.155996
 20
1.316496
  0
VERTEX
  8
LAYER_1
 62
    39
  6
CONTINUOUS
 10
0.160996
 20
1.318496
  0
VERTEX
  8
LAYER_1
 62
    39
  6
CONTINUOUS
 10
0.164996
 20
1.321496
  0
VERTEX
  8
LAYER_1
 62
    39
  6
CONTINUOUS
 10
0.168996
 20
1.323496
  0
VERTEX
  8
LAYER_1
 62
    39
  6
CONTINUOUS
 10
0.172996
 20
1.327496
  0
VERTEX
  8
LAYER_1
 62
    39
  6
CONTINUOUS
 10
0.174996
 20
1.331496
  0
VERTEX
  8
LAYER_1
 62
    39
  6
CONTINUOUS
 10
0.177996
 20
1.335496
  0
VERTEX
  8
LAYER_1
 62
    39
  6
CONTINUOUS
 10
0.180996
 20
1.339496
  0
VERTEX
  8
LAYER_1
 62
    39
  6
CONTINUOUS
 10
0.182996
 20
1.343496
  0
VERTEX
  8
LAYER_1
 62
    39
  6
CONTINUOUS
 10
0.184996
 20
1.348496
  0
VERTEX
  8
LAYER_1
 62
    39
  6
CONTINUOUS
 10
0.185996
 20
1.352496
  0
VERTEX
  8
LAYER_1
 62
    39
  6
CONTINUOUS
 10
0.186996
 20
1.357496
  0
SEQEND
  8
0
  0
POLYLINE
  8
LAYER_1
 62
    39
  6
CONTINUOUS
 66
     1
 40
0.004390
 41
0.004390
  0
VERTEX
  8
LAYER_1
 62
    39
  6
CONTINUOUS
 10
-0.003004
 20
1.343496
  0
VERTEX
  8
LAYER_1
 62
    39
  6
CONTINUOUS
 10
-0.003004
 20
1.302496
  0
VERTEX
  8
LAYER_1
 62
    39
  6
CONTINUOUS
 10
-0.003004
 20
1.343496
  0
VERTEX
  8
LAYER_1
 62
    39
  6
CONTINUOUS
 10
-0.003004
 20
1.323496
  0
VERTEX
  8
LAYER_1
 62
    39
  6
CONTINUOUS
 10
0.056996
 20
1.323496
  0
SEQEND
  8
0
  0
POLYLINE
  8
LAYER_1
 62
    39
  6
CONTINUOUS
 66
     1
 40
0.004390
 41
0.004390
  0
VERTEX
  8
LAYER_1
 62
    39
  6
CONTINUOUS
 10
0.006996
 20
1.362496
  0
VERTEX
  8
LAYER_1
 62
    39
  6
CONTINUOUS
 10
-0.003004
 20
1.372496
  0
VERTEX
  8
LAYER_1
 62
    39
  6
CONTINUOUS
 10
0.056996
 20
1.372496
  0
VERTEX
  8
LAYER_1
 62
    39
  6
CONTINUOUS
 10
0.056996
 20
1.362496
  0
VERTEX
  8
LAYER_1
 62
    39
  6
CONTINUOUS
 10
0.056996
 20
1.383496
  0
SEQEND
  8
0
  0
POLYLINE
  8
LAYER_1
 62
    39
  6
CONTINUOUS
 66
     1
 40
0.004390
 41
0.004390
  0
VERTEX
  8
LAYER_1
 62
    39
  6
CONTINUOUS
 10
0.056996
 20
1.413496
  0
VERTEX
  8
LAYER_1
 62
    39
  6
CONTINUOUS
 10
0.047996
 20
1.403496
  0
VERTEX
  8
LAYER_1
 62
    39
  6
CONTINUOUS
 10
0.056996
 20
1.413496
  0
VERTEX
  8
LAYER_1
 62
    39
  6
CONTINUOUS
 10
0.056996
 20
1.432496
  0
VERTEX
  8
LAYER_1
 62
    39
  6
CONTINUOUS
 10
0.047996
 20
1.442496
  0
VERTEX
  8
LAYER_1
 62
    39
  6
CONTINUOUS
 10
0.027996
 20
1.442496
  0
VERTEX
  8
LAYER_1
 62
    39
  6
CONTINUOUS
 10
0.016996
 20
1.432496
  0
VERTEX
  8
LAYER_1
 62
    39
  6
CONTINUOUS
 10
0.016996
 20
1.403496
  0
VERTEX
  8
LAYER_1
 62
    39
  6
CONTINUOUS
 10
-0.003004
 20
1.403496
  0
VERTEX
  8
LAYER_1
 62
    39
  6
CONTINUOUS
 10
-0.003004
 20
1.442496
  0
SEQEND
  8
0
  0
POLYLINE
  8
LAYER_1
 62
    39
  6
CONTINUOUS
 66
     1
 40
0.004390
 41
0.004390
 70
     1
  0
VERTEX
  8
LAYER_1
 62
    39
  6
CONTINUOUS
 10
-0.012004
 20
1.362496
  0
VERTEX
  8
LAYER_1
 62
    39
  6
CONTINUOUS
 10
-0.012004
 20
1.367496
  0
VERTEX
  8
LAYER_1
 62
    39
  6
CONTINUOUS
 10
-0.013004
 20
1.372496
  0
VERTEX
  8
LAYER_1
 62
    39
  6
CONTINUOUS
 10
-0.014004
 20
1.377496
  0
VERTEX
  8
LAYER_1
 62
    39
  6
CONTINUOUS
 10
-0.016004
 20
1.382496
  0
VERTEX
  8
LAYER_1
 62
    39
  6
CONTINUOUS
 10
-0.018004
 20
1.386496
  0
VERTEX
  8
LAYER_1
 62
    39
  6
CONTINUOUS
 10
-0.021004
 20
1.391496
  0
VERTEX
  8
LAYER_1
 62
    39
  6
CONTINUOUS
 10
-0.024004
 20
1.395496
  0
VERTEX
  8
LAYER_1
 62
    39
  6
CONTINUOUS
 10
-0.027004
 20
1.399496
  0
VERTEX
  8
LAYER_1
 62
    39
  6
CONTINUOUS
 10
-0.031004
 20
1.402496
  0
VERTEX
  8
LAYER_1
 62
    39
  6
CONTINUOUS
 10
-0.035004
 20
1.405496
  0
VERTEX
  8
LAYER_1
 62
    39
  6
CONTINUOUS
 10
-0.040004
 20
1.407496
  0
VERTEX
  8
LAYER_1
 62
    39
  6
CONTINUOUS
 10
-0.044004
 20
1.409496
  0
VERTEX
  8
LAYER_1
 62
    39
  6
CONTINUOUS
 10
-0.049004
 20
1.411496
  0
VERTEX
  8
LAYER_1
 62
    39
  6
CONTINUOUS
 10
-0.054004
 20
1.412496
  0
VERTEX
  8
LAYER_1
 62
    39
  6
CONTINUOUS
 10
-0.059004
 20
1.413496
  0
VERTEX
  8
LAYER_1
 62
    39
  6
CONTINUOUS
 10
-0.064004
 20
1.413496
  0
VERTEX
  8
LAYER_1
 62
    39
  6
CONTINUOUS
 10
-0.069004
 20
1.413496
  0
VERTEX
  8
LAYER_1
 62
    39
  6
CONTINUOUS
 10
-0.074004
 20
1.412496
  0
VERTEX
  8
LAYER_1
 62
    39
  6
CONTINUOUS
 10
-0.078004
 20
1.410496
  0
VERTEX
  8
LAYER_1
 62
    39
  6
CONTINUOUS
 10
-0.083004
 20
1.409496
  0
VERTEX
  8
LAYER_1
 62
    39
  6
CONTINUOUS
 10
-0.087004
 20
1.406496
  0
VERTEX
  8
LAYER_1
 62
    39
  6
CONTINUOUS
 10
-0.091004
 20
1.403496
  0
VERTEX
  8
LAYER_1
 62
    39
  6
CONTINUOUS
 10
-0.095004
 20
1.400496
  0
VERTEX
  8
LAYER_1
 62
    39
  6
CONTINUOUS
 10
-0.099004
 20
1.397496
  0
VERTEX
  8
LAYER_1
 62
    39
  6
CONTINUOUS
 10
-0.102004
 20
1.393496
  0
VERTEX
  8
LAYER_1
 62
    39
  6
CONTINUOUS
 10
-0.105004
 20
1.389496
  0
VERTEX
  8
LAYER_1
 62
    39
  6
CONTINUOUS
 10
-0.108004
 20
1.384496
  0
VERTEX
  8
LAYER_1
 62
    39
  6
CONTINUOUS
 10
-0.110004
 20
1.380496
  0
VERTEX
  8
LAYER_1
 62
    39
  6
CONTINUOUS
 10
-0.111004
 20
1.375496
  0
VERTEX
  8
LAYER_1
 62
    39
  6
CONTINUOUS
 10
-0.112004
 20
1.370496
  0
VERTEX
  8
LAYER_1
 62
    39
  6
CONTINUOUS
 10
-0.113004
 20
1.365496
  0
VERTEX
  8
LAYER_1
 62
    39
  6
CONTINUOUS
 10
-0.113004
 20
1.360496
  0
VERTEX
  8
LAYER_1
 62
    39
  6
CONTINUOUS
 10
-0.112004
 20
1.355496
  0
VERTEX
  8
LAYER_1
 62
    39
  6
CONTINUOUS
 10
-0.111004
 20
1.350496
  0
VERTEX
  8
LAYER_1
 62
    39
  6
CONTINUOUS
 10
-0.110004
 20
1.346496
  0
VERTEX
  8
LAYER_1
 62
    39
  6
CONTINUOUS
 10
-0.108004
 20
1.341496
  0
VERTEX
  8
LAYER_1
 62
    39
  6
CONTINUOUS
 10
-0.105004
 20
1.337496
  0
VERTEX
  8
LAYER_1
 62
    39
  6
CONTINUOUS
 10
-0.102004
 20
1.333496
  0
VERTEX
  8
LAYER_1
 62
    39
  6
CONTINUOUS
 10
-0.099004
 20
1.329496
  0
VERTEX
  8
LAYER_1
 62
    39
  6
CONTINUOUS
 10
-0.095004
 20
1.325496
  0
VERTEX
  8
LAYER_1
 62
    39
  6
CONTINUOUS
 10
-0.091004
 20
1.322496
  0
VERTEX
  8
LAYER_1
 62
    39
  6
CONTINUOUS
 10
-0.087004
 20
1.319496
  0
VERTEX
  8
LAYER_1
 62
    39
  6
CONTINUOUS
 10
-0.083004
 20
1.317496
  0
VERTEX
  8
LAYER_1
 62
    39
  6
CONTINUOUS
 10
-0.078004
 20
1.315496
  0
VERTEX
  8
LAYER_1
 62
    39
  6
CONTINUOUS
 10
-0.074004
 20
1.314496
  0
VERTEX
  8
LAYER_1
 62
    39
  6
CONTINUOUS
 10
-0.069004
 20
1.313496
  0
VERTEX
  8
LAYER_1
 62
    39
  6
CONTINUOUS
 10
-0.064004
 20
1.312496
  0
VERTEX
  8
LAYER_1
 62
    39
  6
CONTINUOUS
 10
-0.059004
 20
1.313496
  0
VERTEX
  8
LAYER_1
 62
    39
  6
CONTINUOUS
 10
-0.054004
 20
1.313496
  0
VERTEX
  8
LAYER_1
 62
    39
  6
CONTINUOUS
 10
-0.049004
 20
1.314496
  0
VERTEX
  8
LAYER_1
 62
    39
  6
CONTINUOUS
 10
-0.044004
 20
1.316496
  0
VERTEX
  8
LAYER_1
 62
    39
  6
CONTINUOUS
 10
-0.040004
 20
1.318496
  0
VERTEX
  8
LAYER_1
 62
    39
  6
CONTINUOUS
 10
-0.035004
 20
1.321496
  0
VERTEX
  8
LAYER_1
 62
    39
  6
CONTINUOUS
 10
-0.031004
 20
1.323496
  0
VERTEX
  8
LAYER_1
 62
    39
  6
CONTINUOUS
 10
-0.027004
 20
1.327496
  0
VERTEX
  8
LAYER_1
 62
    39
  6
CONTINUOUS
 10
-0.024004
 20
1.331496
  0
VERTEX
  8
LAYER_1
 62
    39
  6
CONTINUOUS
 10
-0.021004
 20
1.335496
  0
VERTEX
  8
LAYER_1
 62
    39
  6
CONTINUOUS
 10
-0.018004
 20
1.339496
  0
VERTEX
  8
LAYER_1
 62
    39
  6
CONTINUOUS
 10
-0.016004
 20
1.343496
  0
VERTEX
  8
LAYER_1
 62
    39
  6
CONTINUOUS
 10
-0.014004
 20
1.348496
  0
VERTEX
  8
LAYER_1
 62
    39
  6
CONTINUOUS
 10
-0.013004
 20
1.352496
  0
VERTEX
  8
LAYER_1
 62
    39
  6
CONTINUOUS
 10
-0.012004
 20
1.357496
  0
SEQEND
  8
0
  0
POLYLINE
  8
LAYER_1
 62
    39
  6
CONTINUOUS
 66
     1
 40
0.004390
 41
0.004390
  0
VERTEX
  8
LAYER_1
 62
    39
  6
CONTINUOUS
 10
-0.137004
 20
1.288496
  0
VERTEX
  8
LAYER_1
 62
    39
  6
CONTINUOUS
 10
-0.137004
 20
1.088496
  0
SEQEND
  8
0
  0
POLYLINE
  8
LAYER_1
 62
    39
  6
CONTINUOUS
 66
     1
 40
0.004390
 41
0.004390
  0
VERTEX
  8
LAYER_1
 62
    39
  6
CONTINUOUS
 10
-0.113004
 20
1.088496
  0
VERTEX
  8
LAYER_1
 62
    39
  6
CONTINUOUS
 10
-0.113004
 20
0.888496
  0
SEQEND
  8
0
  0
POLYLINE
  8
LAYER_1
 62
    39
  6
CONTINUOUS
 66
     1
 40
0.004390
 41
0.004390
  0
VERTEX
  8
LAYER_1
 62
    39
  6
CONTINUOUS
 10
-0.113004
 20
0.888496
  0
VERTEX
  8
LAYER_1
 62
    39
  6
CONTINUOUS
 10
-0.112004
 20
0.882496
  0
VERTEX
  8
LAYER_1
 62
    39
  6
CONTINUOUS
 10
-0.112004
 20
0.877496
  0
VERTEX
  8
LAYER_1
 62
    39
  6
CONTINUOUS
 10
-0.110004
 20
0.872496
  0
VERTEX
  8
LAYER_1
 62
    39
  6
CONTINUOUS
 10
-0.108004
 20
0.868496
  0
VERTEX
  8
LAYER_1
 62
    39
  6
CONTINUOUS
 10
-0.106004
 20
0.863496
  0
VERTEX
  8
LAYER_1
 62
    39
  6
CONTINUOUS
 10
-0.103004
 20
0.859496
  0
VERTEX
  8
LAYER_1
 62
    39
  6
CONTINUOUS
 10
-0.100004
 20
0.855496
  0
VERTEX
  8
LAYER_1
 62
    39
  6
CONTINUOUS
 10
-0.097004
 20
0.851496
  0
VERTEX
  8
LAYER_1
 62
    39
  6
CONTINUOUS
 10
-0.093004
 20
0.848496
  0
VERTEX
  8
LAYER_1
 62
    39
  6
CONTINUOUS
 10
-0.089004
 20
0.845496
  0
VERTEX
  8
LAYER_1
 62
    39
  6
CONTINUOUS
 10
-0.084004
 20
0.843496
  0
VERTEX
  8
LAYER_1
 62
    39
  6
CONTINUOUS
 10
-0.079004
 20
0.841496
  0
VERTEX
  8
LAYER_1
 62
    39
  6
CONTINUOUS
 10
-0.075004
 20
0.839496
  0
VERTEX
  8
LAYER_1
 62
    39
  6
CONTINUOUS
 10
-0.070004
 20
0.838496
  0
VERTEX
  8
LAYER_1
 62
    39
  6
CONTINUOUS
 10
-0.065004
 20
0.838496
  0
VERTEX
  8
LAYER_1
 62
    39
  6
CONTINUOUS
 10
-0.060004
 20
0.838496
  0
VERTEX
  8
LAYER_1
 62
    39
  6
CONTINUOUS
 10
-0.055004
 20
0.838496
  0
VERTEX
  8
LAYER_1
 62
    39
  6
CONTINUOUS
 10
-0.050004
 20
0.839496
  0
VERTEX
  8
LAYER_1
 62
    39
  6
CONTINUOUS
 10
-0.045004
 20
0.841496
  0
VERTEX
  8
LAYER_1
 62
    39
  6
CONTINUOUS
 10
-0.040004
 20
0.843496
  0
VERTEX
  8
LAYER_1
 62
    39
  6
CONTINUOUS
 10
-0.036004
 20
0.845496
  0
VERTEX
  8
LAYER_1
 62
    39
  6
CONTINUOUS
 10
-0.032004
 20
0.848496
  0
VERTEX
  8
LAYER_1
 62
    39
  6
CONTINUOUS
 10
-0.028004
 20
0.851496
  0
VERTEX
  8
LAYER_1
 62
    39
  6
CONTINUOUS
 10
-0.024004
 20
0.855496
  0
VERTEX
  8
LAYER_1
 62
    39
  6
CONTINUOUS
 10
-0.021004
 20
0.859496
  0
VERTEX
  8
LAYER_1
 62
    39
  6
CONTINUOUS
 10
-0.018004
 20
0.863496
  0
VERTEX
  8
LAYER_1
 62
    39
  6
CONTINUOUS
 10
-0.016004
 20
0.868496
  0
VERTEX
  8
LAYER_1
 62
    39
  6
CONTINUOUS
 10
-0.014004
 20
0.872496
  0
VERTEX
  8
LAYER_1
 62
    39
  6
CONTINUOUS
 10
-0.013004
 20
0.877496
  0
VERTEX
  8
LAYER_1
 62
    39
  6
CONTINUOUS
 10
-0.012004
 20
0.882496
  0
VERTEX
  8
LAYER_1
 62
    39
  6
CONTINUOUS
 10
-0.012004
 20
0.888496
  0
SEQEND
  8
0
  0
POLYLINE
  8
LAYER_1
 62
    39
  6
CONTINUOUS
 66
     1
 40
0.004390
 41
0.004390
  0
VERTEX
  8
LAYER_1
 62
    39
  6
CONTINUOUS
 10
-0.032004
 20
0.977496
  0
VERTEX
  8
LAYER_1
 62
    39
  6
CONTINUOUS
 10
-0.042004
 20
0.987496
  0
VERTEX
  8
LAYER_1
 62
    39
  6
CONTINUOUS
 10
-0.032004
 20
0.977496
  0
VERTEX
  8
LAYER_1
 62
    39
  6
CONTINUOUS
 10
-0.032004
 20
0.958496
  0
VERTEX
  8
LAYER_1
 62
    39
  6
CONTINUOUS
 10
-0.042004
 20
0.948496
  0
VERTEX
  8
LAYER_1
 62
    39
  6
CONTINUOUS
 10
-0.082004
 20
0.948496
  0
VERTEX
  8
LAYER_1
 62
    39
  6
CONTINUOUS
 10
-0.092004
 20
0.958496
  0
VERTEX
  8
LAYER_1
 62
    39
  6
CONTINUOUS
 10
-0.092004
 20
0.977496
  0
VERTEX
  8
LAYER_1
 62
    39
  6
CONTINUOUS
 10
-0.082004
 20
0.987496
  0
SEQEND
  8
0
  0
POLYLINE
  8
LAYER_1
 62
    39
  6
CONTINUOUS
 66
     1
 40
0.004390
 41
0.004390
  0
VERTEX
  8
LAYER_1
 62
    39
  6
CONTINUOUS
 10
-0.082004
 20
1.008496
  0
VERTEX
  8
LAYER_1
 62
    39
  6
CONTINUOUS
 10
-0.092004
 20
1.018496
  0
VERTEX
  8
LAYER_1
 62
    39
  6
CONTINUOUS
 10
-0.092004
 20
1.038496
  0
VERTEX
  8
LAYER_1
 62
    39
  6
CONTINUOUS
 10
-0.082004
 20
1.047496
  0
VERTEX
  8
LAYER_1
 62
    39
  6
CONTINUOUS
 10
-0.073004
 20
1.047496
  0
VERTEX
  8
LAYER_1
 62
    39
  6
CONTINUOUS
 10
-0.063004
 20
1.038496
  0
VERTEX
  8
LAYER_1
 62
    39
  6
CONTINUOUS
 10
-0.063004
 20
1.018496
  0
VERTEX
  8
LAYER_1
 62
    39
  6
CONTINUOUS
 10
-0.053004
 20
1.008496
  0
VERTEX
  8
LAYER_1
 62
    39
  6
CONTINUOUS
 10
-0.032004
 20
1.008496
  0
VERTEX
  8
LAYER_1
 62
    39
  6
CONTINUOUS
 10
-0.032004
 20
1.047496
  0
SEQEND
  8
0
  0
POLYLINE
  8
LAYER_1
 62
    39
  6
CONTINUOUS
 66
     1
 40
0.004390
 41
0.004390
  0
VERTEX
  8
LAYER_1
 62
    39
  6
CONTINUOUS
 10
-0.157004
 20
1.177496
  0
VERTEX
  8
LAYER_1
 62
    39
  6
CONTINUOUS
 10
-0.167004
 20
1.187496
  0
VERTEX
  8
LAYER_1
 62
    39
  6
CONTINUOUS
 10
-0.157004
 20
1.177496
  0
VERTEX
  8
LAYER_1
 62
    39
  6
CONTINUOUS
 10
-0.157004
 20
1.158496
  0
VERTEX
  8
LAYER_1
 62
    39
  6
CONTINUOUS
 10
-0.167004
 20
1.148496
  0
VERTEX
  8
LAYER_1
 62
    39
  6
CONTINUOUS
 10
-0.207004
 20
1.148496
  0
VERTEX
  8
LAYER_1
 62
    39
  6
CONTINUOUS
 10
-0.217004
 20
1.158496
  0
VERTEX
  8
LAYER_1
 62
    39
  6
CONTINUOUS
 10
-0.217004
 20
1.177496
  0
VERTEX
  8
LAYER_1
 62
    39
  6
CONTINUOUS
 10
-0.207004
 20
1.187496
  0
SEQEND
  8
0
  0
POLYLINE
  8
LAYER_1
 62
    39
  6
CONTINUOUS
 66
     1
 40
0.004390
 41
0.004390
  0
VERTEX
  8
LAYER_1
 62
    39
  6
CONTINUOUS
 10
-0.167004
 20
1.208496
  0
VERTEX
  8
LAYER_1
 62
    39
  6
CONTINUOUS
 10
-0.157004
 20
1.218496
  0
VERTEX
  8
LAYER_1
 62
    39
  6
CONTINUOUS
 10
-0.167004
 20
1.208496
  0
VERTEX
  8
LAYER_1
 62
    39
  6
CONTINUOUS
 10
-0.178004
 20
1.208496
  0
VERTEX
  8
LAYER_1
 62
    39
  6
CONTINUOUS
 10
-0.188004
 20
1.218496
  0
VERTEX
  8
LAYER_1
 62
    39
  6
CONTINUOUS
 10
-0.188004
 20
1.237496
  0
VERTEX
  8
LAYER_1
 62
    39
  6
CONTINUOUS
 10
-0.198004
 20
1.247496
  0
VERTEX
  8
LAYER_1
 62
    39
  6
CONTINUOUS
 10
-0.207004
 20
1.247496
  0
VERTEX
  8
LAYER_1
 62
    39
  6
CONTINUOUS
 10
-0.217004
 20
1.237496
  0
VERTEX
  8
LAYER_1
 62
    39
  6
CONTINUOUS
 10
-0.217004
 20
1.218496
  0
VERTEX
  8
LAYER_1
 62
    39
  6
CONTINUOUS
 10
-0.207004
 20
1.208496
  0
VERTEX
  8
LAYER_1
 62
    39
  6
CONTINUOUS
 10
-0.198004
 20
1.208496
  0
VERTEX
  8
LAYER_1
 62
    39
  6
CONTINUOUS
 10
-0.188004
 20
1.218496
  0
VERTEX
  8
LAYER_1
 62
    39
  6
CONTINUOUS
 10
-0.188004
 20
1.237496
  0
VERTEX
  8
LAYER_1
 62
    39
  6
CONTINUOUS
 10
-0.178004
 20
1.247496
  0
VERTEX
  8
LAYER_1
 62
    39
  6
CONTINUOUS
 10
-0.167004
 20
1.247496
  0
VERTEX
  8
LAYER_1
 62
    39
  6
CONTINUOUS
 10
-0.157004
 20
1.237496
  0
VERTEX
  8
LAYER_1
 62
    39
  6
CONTINUOUS
 10
-0.157004
 20
1.218496
  0
SEQEND
  8
0
  0
POLYLINE
  8
LAYER_1
 62
    39
  6
CONTINUOUS
 66
     1
 40
0.004390
 41
0.004390
 70
     1
  0
VERTEX
  8
LAYER_1
 62
    39
  6
CONTINUOUS
 10
-0.137004
 20
1.288496
  0
VERTEX
  8
LAYER_1
 62
    39
  6
CONTINUOUS
 10
-0.137004
 20
1.292496
  0
VERTEX
  8
LAYER_1
 62
    39
  6
CONTINUOUS
 10
-0.138004
 20
1.297496
  0
VERTEX
  8
LAYER_1
 62
    39
  6
CONTINUOUS
 10
-0.139004
 20
1.302496
  0
VERTEX
  8
LAYER_1
 62
    39
  6
CONTINUOUS
 10
-0.141004
 20
1.307496
  0
VERTEX
  8
LAYER_1
 62
    39
  6
CONTINUOUS
 10
-0.143004
 20
1.312496
  0
VERTEX
  8
LAYER_1
 62
    39
  6
CONTINUOUS
 10
-0.146004
 20
1.316496
  0
VERTEX
  8
LAYER_1
 62
    39
  6
CONTINUOUS
 10
-0.149004
 20
1.320496
  0
VERTEX
  8
LAYER_1
 62
    39
  6
CONTINUOUS
 10
-0.153004
 20
1.324496
  0
VERTEX
  8
LAYER_1
 62
    39
  6
CONTINUOUS
 10
-0.157004
 20
1.327496
  0
VERTEX
  8
LAYER_1
 62
    39
  6
CONTINUOUS
 10
-0.161004
 20
1.330496
  0
VERTEX
  8
LAYER_1
 62
    39
  6
CONTINUOUS
 10
-0.165004
 20
1.333496
  0
VERTEX
  8
LAYER_1
 62
    39
  6
CONTINUOUS
 10
-0.170004
 20
1.335496
  0
VERTEX
  8
LAYER_1
 62
    39
  6
CONTINUOUS
 10
-0.175004
 20
1.336496
  0
VERTEX
  8
LAYER_1
 62
    39
  6
CONTINUOUS
 10
-0.180004
 20
1.337496
  0
VERTEX
  8
LAYER_1
 62
    39
  6
CONTINUOUS
 10
-0.185004
 20
1.338496
  0
VERTEX
  8
LAYER_1
 62
    39
  6
CONTINUOUS
 10
-0.190004
 20
1.338496
  0
VERTEX
  8
LAYER_1
 62
    39
  6
CONTINUOUS
 10
-0.195004
 20
1.337496
  0
VERTEX
  8
LAYER_1
 62
    39
  6
CONTINUOUS
 10
-0.200004
 20
1.336496
  0
VERTEX
  8
LAYER_1
 62
    39
  6
CONTINUOUS
 10
-0.204004
 20
1.335496
  0
VERTEX
  8
LAYER_1
 62
    39
  6
CONTINUOUS
 10
-0.209004
 20
1.333496
  0
VERTEX
  8
LAYER_1
 62
    39
  6
CONTINUOUS
 10
-0.214004
 20
1.330496
  0
VERTEX
  8
LAYER_1
 62
    39
  6
CONTINUOUS
 10
-0.218004
 20
1.327496
  0
VERTEX
  8
LAYER_1
 62
    39
  6
CONTINUOUS
 10
-0.222004
 20
1.324496
  0
VERTEX
  8
LAYER_1
 62
    39
  6
CONTINUOUS
 10
-0.225004
 20
1.320496
  0
VERTEX
  8
LAYER_1
 62
    39
  6
CONTINUOUS
 10
-0.228004
 20
1.316496
  0
VERTEX
  8
LAYER_1
 62
    39
  6
CONTINUOUS
 10
-0.231004
 20
1.312496
  0
VERTEX
  8
LAYER_1
 62
    39
  6
CONTINUOUS
 10
-0.233004
 20
1.307496
  0
VERTEX
  8
LAYER_1
 62
    39
  6
CONTINUOUS
 10
-0.235004
 20
1.302496
  0
VERTEX
  8
LAYER_1
 62
    39
  6
CONTINUOUS
 10
-0.237004
 20
1.297496
  0
VERTEX
  8
LAYER_1
 62
    39
  6
CONTINUOUS
 10
-0.237004
 20
1.292496
  0
VERTEX
  8
LAYER_1
 62
    39
  6
CONTINUOUS
 10
-0.238004
 20
1.288496
  0
SEQEND
  8
0
  0
POLYLINE
  8
LAYER_1
 62
    39
  6
CONTINUOUS
 66
     1
 40
0.004390
 41
0.004390
  0
VERTEX
  8
LAYER_1
 62
    39
  6
CONTINUOUS
 10
-0.238004
 20
1.288496
  0
VERTEX
  8
LAYER_1
 62
    39
  6
CONTINUOUS
 10
-0.238004
 20
1.088496
  0
SEQEND
  8
0
  0
POLYLINE
  8
LAYER_1
 62
    39
  6
CONTINUOUS
 66
     1
 40
0.004390
 41
0.004390
  0
VERTEX
  8
LAYER_1
 62
    39
  6
CONTINUOUS
 10
-0.238004
 20
1.088496
  0
VERTEX
  8
LAYER_1
 62
    39
  6
CONTINUOUS
 10
-0.237004
 20
1.083496
  0
VERTEX
  8
LAYER_1
 62
    39
  6
CONTINUOUS
 10
-0.237004
 20
1.078496
  0
VERTEX
  8
LAYER_1
 62
    39
  6
CONTINUOUS
 10
-0.235004
 20
1.073496
  0
VERTEX
  8
LAYER_1
 62
    39
  6
CONTINUOUS
 10
-0.233004
 20
1.068496
  0
VERTEX
  8
LAYER_1
 62
    39
  6
CONTINUOUS
 10
-0.231004
 20
1.063496
  0
VERTEX
  8
LAYER_1
 62
    39
  6
CONTINUOUS
 10
-0.228004
 20
1.059496
  0
VERTEX
  8
LAYER_1
 62
    39
  6
CONTINUOUS
 10
-0.225004
 20
1.055496
  0
VERTEX
  8
LAYER_1
 62
    39
  6
CONTINUOUS
 10
-0.222004
 20
1.051496
  0
VERTEX
  8
LAYER_1
 62
    39
  6
CONTINUOUS
 10
-0.218004
 20
1.048496
  0
VERTEX
  8
LAYER_1
 62
    39
  6
CONTINUOUS
 10
-0.214004
 20
1.045496
  0
VERTEX
  8
LAYER_1
 62
    39
  6
CONTINUOUS
 10
-0.209004
 20
1.042496
  0
VERTEX
  8
LAYER_1
 62
    39
  6
CONTINUOUS
 10
-0.204004
 20
1.040496
  0
VERTEX
  8
LAYER_1
 62
    39
  6
CONTINUOUS
 10
-0.200004
 20
1.039496
  0
VERTEX
  8
LAYER_1
 62
    39
  6
CONTINUOUS
 10
-0.195004
 20
1.038496
  0
VERTEX
  8
LAYER_1
 62
    39
  6
CONTINUOUS
 10
-0.190004
 20
1.038496
  0
VERTEX
  8
LAYER_1
 62
    39
  6
CONTINUOUS
 10
-0.185004
 20
1.038496
  0
VERTEX
  8
LAYER_1
 62
    39
  6
CONTINUOUS
 10
-0.180004
 20
1.038496
  0
VERTEX
  8
LAYER_1
 62
    39
  6
CONTINUOUS
 10
-0.175004
 20
1.039496
  0
VERTEX
  8
LAYER_1
 62
    39
  6
CONTINUOUS
 10
-0.170004
 20
1.040496
  0
VERTEX
  8
LAYER_1
 62
    39
  6
CONTINUOUS
 10
-0.165004
 20
1.042496
  0
VERTEX
  8
LAYER_1
 62
    39
  6
CONTINUOUS
 10
-0.161004
 20
1.045496
  0
VERTEX
  8
LAYER_1
 62
    39
  6
CONTINUOUS
 10
-0.157004
 20
1.048496
  0
VERTEX
  8
LAYER_1
 62
    39
  6
CONTINUOUS
 10
-0.153004
 20
1.051496
  0
VERTEX
  8
LAYER_1
 62
    39
  6
CONTINUOUS
 10
-0.149004
 20
1.055496
  0
VERTEX
  8
LAYER_1
 62
    39
  6
CONTINUOUS
 10
-0.146004
 20
1.059496
  0
VERTEX
  8
LAYER_1
 62
    39
  6
CONTINUOUS
 10
-0.143004
 20
1.063496
  0
VERTEX
  8
LAYER_1
 62
    39
  6
CONTINUOUS
 10
-0.141004
 20
1.068496
  0
VERTEX
  8
LAYER_1
 62
    39
  6
CONTINUOUS
 10
-0.139004
 20
1.073496
  0
VERTEX
  8
LAYER_1
 62
    39
  6
CONTINUOUS
 10
-0.138004
 20
1.078496
  0
VERTEX
  8
LAYER_1
 62
    39
  6
CONTINUOUS
 10
-0.137004
 20
1.083496
  0
VERTEX
  8
LAYER_1
 62
    39
  6
CONTINUOUS
 10
-0.137004
 20
1.088496
  0
SEQEND
  8
0
  0
POLYLINE
  8
LAYER_1
 62
    39
  6
CONTINUOUS
 66
     1
 40
0.004390
 41
0.004390
 70
     1
  0
VERTEX
  8
LAYER_1
 62
    39
  6
CONTINUOUS
 10
-0.262004
 20
1.038496
  0
VERTEX
  8
LAYER_1
 62
    39
  6
CONTINUOUS
 10
-0.462004
 20
1.038496
  0
VERTEX
  8
LAYER_1
 62
    39
  6
CONTINUOUS
 10
-0.462004
 20
1.088496
  0
VERTEX
  8
LAYER_1
 62
    39
  6
CONTINUOUS
 10
-0.462004
 20
1.138496
  0
VERTEX
  8
LAYER_1
 62
    39
  6
CONTINUOUS
 10
-0.412004
 20
1.187496
  0
VERTEX
  8
LAYER_1
 62
    39
  6
CONTINUOUS
 10
-0.387004
 20
1.213496
  0
VERTEX
  8
LAYER_1
 62
    39
  6
CONTINUOUS
 10
-0.337004
 20
1.213496
  0
VERTEX
  8
LAYER_1
 62
    39
  6
CONTINUOUS
 10
-0.262004
 20
1.138496
  0
SEQEND
  8
0
  0
POLYLINE
  8
LAYER_1
 62
    39
  6
CONTINUOUS
 66
     1
 40
0.004390
 41
0.004390
 70
     1
  0
VERTEX
  8
LAYER_1
 62
    39
  6
CONTINUOUS
 10
-0.337004
 20
1.013496
  0
VERTEX
  8
LAYER_1
 62
    39
  6
CONTINUOUS
 10
-0.337004
 20
0.913496
  0
VERTEX
  8
LAYER_1
 62
    39
  6
CONTINUOUS
 10
-0.637004
 20
0.913496
  0
VERTEX
  8
LAYER_1
 62
    39
  6
CONTINUOUS
 10
-0.637004
 20
1.013496
  0
SEQEND
  8
0
  0
POLYLINE
  8
LAYER_1
 62
    39
  6
CONTINUOUS
 66
     1
 40
0.004390
 41
0.004390
  0
VERTEX
  8
LAYER_1
 62
    39
  6
CONTINUOUS
 10
-0.323004
 20
0.997496
  0
VERTEX
  8
LAYER_1
 62
    39
  6
CONTINUOUS
 10
-0.323004
 20
0.937496
  0
VERTEX
  8
LAYER_1
 62
    39
  6
CONTINUOUS
 10
-0.323004
 20
0.997496
  0
VERTEX
  8
LAYER_1
 62
    39
  6
CONTINUOUS
 10
-0.292004
 20
0.997496
  0
VERTEX
  8
LAYER_1
 62
    39
  6
CONTINUOUS
 10
-0.282004
 20
0.987496
  0
VERTEX
  8
LAYER_1
 62
    39
  6
CONTINUOUS
 10
-0.282004
 20
0.977496
  0
VERTEX
  8
LAYER_1
 62
    39
  6
CONTINUOUS
 10
-0.292004
 20
0.968496
  0
VERTEX
  8
LAYER_1
 62
    39
  6
CONTINUOUS
 10
-0.323004
 20
0.968496
  0
VERTEX
  8
LAYER_1
 62
    39
  6
CONTINUOUS
 10
-0.313004
 20
0.968496
  0
VERTEX
  8
LAYER_1
 62
    39
  6
CONTINUOUS
 10
-0.282004
 20
0.937496
  0
SEQEND
  8
0
  0
POLYLINE
  8
LAYER_1
 62
    39
  6
CONTINUOUS
 66
     1
 40
0.004390
 41
0.004390
  0
VERTEX
  8
LAYER_1
 62
    39
  6
CONTINUOUS
 10
-0.262004
 20
0.997496
  0
VERTEX
  8
LAYER_1
 62
    39
  6
CONTINUOUS
 10
-0.262004
 20
0.937496
  0
VERTEX
  8
LAYER_1
 62
    39
  6
CONTINUOUS
 10
-0.262004
 20
0.997496
  0
VERTEX
  8
LAYER_1
 62
    39
  6
CONTINUOUS
 10
-0.222004
 20
0.997496
  0
VERTEX
  8
LAYER_1
 62
    39
  6
CONTINUOUS
 10
-0.262004
 20
0.997496
  0
VERTEX
  8
LAYER_1
 62
    39
  6
CONTINUOUS
 10
-0.262004
 20
0.968496
  0
VERTEX
  8
LAYER_1
 62
    39
  6
CONTINUOUS
 10
-0.243004
 20
0.968496
  0
VERTEX
  8
LAYER_1
 62
    39
  6
CONTINUOUS
 10
-0.262004
 20
0.968496
  0
VERTEX
  8
LAYER_1
 62
    39
  6
CONTINUOUS
 10
-0.262004
 20
0.937496
  0
VERTEX
  8
LAYER_1
 62
    39
  6
CONTINUOUS
 10
-0.222004
 20
0.937496
  0
SEQEND
  8
0
  0
POLYLINE
  8
LAYER_1
 62
    39
  6
CONTINUOUS
 66
     1
 40
0.004390
 41
0.004390
  0
VERTEX
  8
LAYER_1
 62
    39
  6
CONTINUOUS
 10
-0.173004
 20
0.968496
  0
VERTEX
  8
LAYER_1
 62
    39
  6
CONTINUOUS
 10
-0.162004
 20
0.968496
  0
VERTEX
  8
LAYER_1
 62
    39
  6
CONTINUOUS
 10
-0.162004
 20
0.937496
  0
VERTEX
  8
LAYER_1
 62
    39
  6
CONTINUOUS
 10
-0.193004
 20
0.937496
  0
VERTEX
  8
LAYER_1
 62
    39
  6
CONTINUOUS
 10
-0.202004
 20
0.948496
  0
VERTEX
  8
LAYER_1
 62
    39
  6
CONTINUOUS
 10
-0.202004
 20
0.987496
  0
VERTEX
  8
LAYER_1
 62
    39
  6
CONTINUOUS
 10
-0.193004
 20
0.997496
  0
VERTEX
  8
LAYER_1
 62
    39
  6
CONTINUOUS
 10
-0.162004
 20
0.997496
  0
SEQEND
  8
0
  0
POLYLINE
  8
LAYER_1
 62
    39
  6
CONTINUOUS
 66
     1
 40
0.004390
 41
0.004390
  0
VERTEX
  8
LAYER_1
 62
    39
  6
CONTINUOUS
 10
-0.142004
 20
0.987496
  0
VERTEX
  8
LAYER_1
 62
    39
  6
CONTINUOUS
 10
-0.133004
 20
0.997496
  0
VERTEX
  8
LAYER_1
 62
    39
  6
CONTINUOUS
 10
-0.133004
 20
0.937496
  0
VERTEX
  8
LAYER_1
 62
    39
  6
CONTINUOUS
 10
-0.142004
 20
0.937496
  0
VERTEX
  8
LAYER_1
 62
    39
  6
CONTINUOUS
 10
-0.123004
 20
0.937496
  0
SEQEND
  8
0
  0
POLYLINE
  8
LAYER_1
 62
    39
  6
CONTINUOUS
 66
     1
 40
0.004390
 41
0.004390
  0
VERTEX
  8
LAYER_1
 62
    39
  6
CONTINUOUS
 10
-0.188004
 20
0.862496
  0
VERTEX
  8
LAYER_1
 62
    39
  6
CONTINUOUS
 10
-0.188004
 20
0.867496
  0
VERTEX
  8
LAYER_1
 62
    39
  6
CONTINUOUS
 10
-0.189004
 20
0.872496
  0
VERTEX
  8
LAYER_1
 62
    39
  6
CONTINUOUS
 10
-0.190004
 20
0.877496
  0
VERTEX
  8
LAYER_1
 62
    39
  6
CONTINUOUS
 10
-0.192004
 20
0.882496
  0
VERTEX
  8
LAYER_1
 62
    39
  6
CONTINUOUS
 10
-0.194004
 20
0.886496
  0
VERTEX
  8
LAYER_1
 62
    39
  6
CONTINUOUS
 10
-0.196004
 20
0.890496
  0
VERTEX
  8
LAYER_1
 62
    39
  6
CONTINUOUS
 10
-0.199004
 20
0.894496
  0
VERTEX
  8
LAYER_1
 62
    39
  6
CONTINUOUS
 10
-0.202004
 20
0.898496
  0
VERTEX
  8
LAYER_1
 62
    39
  6
CONTINUOUS
 10
-0.205004
 20
0.901496
  0
VERTEX
  8
LAYER_1
 62
    39
  6
CONTINUOUS
 10
-0.209004
 20
0.904496
  0
VERTEX
  8
LAYER_1
 62
    39
  6
CONTINUOUS
 10
-0.214004
 20
0.907496
  0
VERTEX
  8
LAYER_1
 62
    39
  6
CONTINUOUS
 10
-0.218004
 20
0.909496
  0
VERTEX
  8
LAYER_1
 62
    39
  6
CONTINUOUS
 10
-0.223004
 20
0.911496
  0
VERTEX
  8
LAYER_1
 62
    39
  6
CONTINUOUS
 10
-0.228004
 20
0.912496
  0
VERTEX
  8
LAYER_1
 62
    39
  6
CONTINUOUS
 10
-0.233004
 20
0.913496
  0
VERTEX
  8
LAYER_1
 62
    39
  6
CONTINUOUS
 10
-0.238004
 20
0.913496
  0
SEQEND
  8
0
  0
POLYLINE
  8
LAYER_1
 62
    39
  6
CONTINUOUS
 66
     1
 40
0.004390
 41
0.004390
  0
VERTEX
  8
LAYER_1
 62
    39
  6
CONTINUOUS
 10
-0.238004
 20
0.812496
  0
VERTEX
  8
LAYER_1
 62
    39
  6
CONTINUOUS
 10
-0.233004
 20
0.813496
  0
VERTEX
  8
LAYER_1
 62
    39
  6
CONTINUOUS
 10
-0.228004
 20
0.813496
  0
VERTEX
  8
LAYER_1
 62
    39
  6
CONTINUOUS
 10
-0.223004
 20
0.815496
  0
VERTEX
  8
LAYER_1
 62
    39
  6
CONTINUOUS
 10
-0.218004
 20
0.816496
  0
VERTEX
  8
LAYER_1
 62
    39
  6
CONTINUOUS
 10
-0.214004
 20
0.818496
  0
VERTEX
  8
LAYER_1
 62
    39
  6
CONTINUOUS
 10
-0.209004
 20
0.821496
  0
VERTEX
  8
LAYER_1
 62
    39
  6
CONTINUOUS
 10
-0.205004
 20
0.824496
  0
VERTEX
  8
LAYER_1
 62
    39
  6
CONTINUOUS
 10
-0.202004
 20
0.827496
  0
VERTEX
  8
LAYER_1
 62
    39
  6
CONTINUOUS
 10
-0.199004
 20
0.831496
  0
VERTEX
  8
LAYER_1
 62
    39
  6
CONTINUOUS
 10
-0.196004
 20
0.835496
  0
VERTEX
  8
LAYER_1
 62
    39
  6
CONTINUOUS
 10
-0.194004
 20
0.839496
  0
VERTEX
  8
LAYER_1
 62
    39
  6
CONTINUOUS
 10
-0.192004
 20
0.844496
  0
VERTEX
  8
LAYER_1
 62
    39
  6
CONTINUOUS
 10
-0.190004
 20
0.848496
  0
VERTEX
  8
LAYER_1
 62
    39
  6
CONTINUOUS
 10
-0.189004
 20
0.852496
  0
VERTEX
  8
LAYER_1
 62
    39
  6
CONTINUOUS
 10
-0.188004
 20
0.857496
  0
VERTEX
  8
LAYER_1
 62
    39
  6
CONTINUOUS
 10
-0.188004
 20
0.862496
  0
SEQEND
  8
0
  0
POLYLINE
  8
LAYER_1
 62
    39
  6
CONTINUOUS
 66
     1
 40
0.004390
 41
0.004390
  0
VERTEX
  8
LAYER_1
 62
    39
  6
CONTINUOUS
 10
-0.337004
 20
0.886496
  0
VERTEX
  8
LAYER_1
 62
    39
  6
CONTINUOUS
 10
-0.337004
 20
0.838496
  0
VERTEX
  8
LAYER_1
 62
    39
  6
CONTINUOUS
 10
-0.337004
 20
0.886496
  0
VERTEX
  8
LAYER_1
 62
    39
  6
CONTINUOUS
 10
-0.314004
 20
0.886496
  0
VERTEX
  8
LAYER_1
 62
    39
  6
CONTINUOUS
 10
-0.306004
 20
0.877496
  0
VERTEX
  8
LAYER_1
 62
    39
  6
CONTINUOUS
 10
-0.306004
 20
0.869496
  0
VERTEX
  8
LAYER_1
 62
    39
  6
CONTINUOUS
 10
-0.314004
 20
0.861496
  0
VERTEX
  8
LAYER_1
 62
    39
  6
CONTINUOUS
 10
-0.337004
 20
0.861496
  0
VERTEX
  8
LAYER_1
 62
    39
  6
CONTINUOUS
 10
-0.329004
 20
0.861496
  0
VERTEX
  8
LAYER_1
 62
    39
  6
CONTINUOUS
 10
-0.306004
 20
0.838496
  0
SEQEND
  8
0
  0
POLYLINE
  8
LAYER_1
 62
    39
  6
CONTINUOUS
 66
     1
 40
0.004390
 41
0.004390
  0
VERTEX
  8
LAYER_1
 62
    39
  6
CONTINUOUS
 10
-0.258004
 20
0.853496
  0
VERTEX
  8
LAYER_1
 62
    39
  6
CONTINUOUS
 10
-0.289004
 20
0.853496
  0
VERTEX
  8
LAYER_1
 62
    39
  6
CONTINUOUS
 10
-0.289004
 20
0.861496
  0
VERTEX
  8
LAYER_1
 62
    39
  6
CONTINUOUS
 10
-0.265004
 20
0.886496
  0
VERTEX
  8
LAYER_1
 62
    39
  6
CONTINUOUS
 10
-0.265004
 20
0.838496
  0
SEQEND
  8
0
  0
POLYLINE
  8
LAYER_1
 62
    39
  6
CONTINUOUS
 66
     1
 40
0.004390
 41
0.004390
  0
VERTEX
  8
LAYER_1
 62
    39
  6
CONTINUOUS
 10
-0.387004
 20
0.862496
  0
VERTEX
  8
LAYER_1
 62
    39
  6
CONTINUOUS
 10
-0.387004
 20
0.867496
  0
VERTEX
  8
LAYER_1
 62
    39
  6
CONTINUOUS
 10
-0.388004
 20
0.872496
  0
VERTEX
  8
LAYER_1
 62
    39
  6
CONTINUOUS
 10
-0.389004
 20
0.877496
  0
VERTEX
  8
LAYER_1
 62
    39
  6
CONTINUOUS
 10
-0.391004
 20
0.882496
  0
VERTEX
  8
LAYER_1
 62
    39
  6
CONTINUOUS
 10
-0.393004
 20
0.886496
  0
VERTEX
  8
LAYER_1
 62
    39
  6
CONTINUOUS
 10
-0.396004
 20
0.890496
  0
VERTEX
  8
LAYER_1
 62
    39
  6
CONTINUOUS
 10
-0.399004
 20
0.894496
  0
VERTEX
  8
LAYER_1
 62
    39
  6
CONTINUOUS
 10
-0.402004
 20
0.898496
  0
VERTEX
  8
LAYER_1
 62
    39
  6
CONTINUOUS
 10
-0.406004
 20
0.901496
  0
VERTEX
  8
LAYER_1
 62
    39
  6
CONTINUOUS
 10
-0.410004
 20
0.904496
  0
VERTEX
  8
LAYER_1
 62
    39
  6
CONTINUOUS
 10
-0.414004
 20
0.907496
  0
VERTEX
  8
LAYER_1
 62
    39
  6
CONTINUOUS
 10
-0.418004
 20
0.909496
  0
VERTEX
  8
LAYER_1
 62
    39
  6
CONTINUOUS
 10
-0.423004
 20
0.911496
  0
VERTEX
  8
LAYER_1
 62
    39
  6
CONTINUOUS
 10
-0.428004
 20
0.912496
  0
VERTEX
  8
LAYER_1
 62
    39
  6
CONTINUOUS
 10
-0.433004
 20
0.913496
  0
VERTEX
  8
LAYER_1
 62
    39
  6
CONTINUOUS
 10
-0.438004
 20
0.913496
  0
SEQEND
  8
0
  0
POLYLINE
  8
LAYER_1
 62
    39
  6
CONTINUOUS
 66
     1
 40
0.004390
 41
0.004390
  0
VERTEX
  8
LAYER_1
 62
    39
  6
CONTINUOUS
 10
-0.438004
 20
0.812496
  0
VERTEX
  8
LAYER_1
 62
    39
  6
CONTINUOUS
 10
-0.433004
 20
0.813496
  0
VERTEX
  8
LAYER_1
 62
    39
  6
CONTINUOUS
 10
-0.428004
 20
0.813496
  0
VERTEX
  8
LAYER_1
 62
    39
  6
CONTINUOUS
 10
-0.423004
 20
0.815496
  0
VERTEX
  8
LAYER_1
 62
    39
  6
CONTINUOUS
 10
-0.418004
 20
0.816496
  0
VERTEX
  8
LAYER_1
 62
    39
  6
CONTINUOUS
 10
-0.414004
 20
0.818496
  0
VERTEX
  8
LAYER_1
 62
    39
  6
CONTINUOUS
 10
-0.410004
 20
0.821496
  0
VERTEX
  8
LAYER_1
 62
    39
  6
CONTINUOUS
 10
-0.406004
 20
0.824496
  0
VERTEX
  8
LAYER_1
 62
    39
  6
CONTINUOUS
 10
-0.402004
 20
0.827496
  0
VERTEX
  8
LAYER_1
 62
    39
  6
CONTINUOUS
 10
-0.399004
 20
0.831496
  0
VERTEX
  8
LAYER_1
 62
    39
  6
CONTINUOUS
 10
-0.396004
 20
0.835496
  0
VERTEX
  8
LAYER_1
 62
    39
  6
CONTINUOUS
 10
-0.393004
 20
0.839496
  0
VERTEX
  8
LAYER_1
 62
    39
  6
CONTINUOUS
 10
-0.391004
 20
0.844496
  0
VERTEX
  8
LAYER_1
 62
    39
  6
CONTINUOUS
 10
-0.389004
 20
0.848496
  0
VERTEX
  8
LAYER_1
 62
    39
  6
CONTINUOUS
 10
-0.388004
 20
0.852496
  0
VERTEX
  8
LAYER_1
 62
    39
  6
CONTINUOUS
 10
-0.387004
 20
0.857496
  0
VERTEX
  8
LAYER_1
 62
    39
  6
CONTINUOUS
 10
-0.387004
 20
0.862496
  0
SEQEND
  8
0
  0
POLYLINE
  8
LAYER_1
 62
    39
  6
CONTINUOUS
 66
     1
 40
0.004390
 41
0.004390
  0
VERTEX
  8
LAYER_1
 62
    39
  6
CONTINUOUS
 10
-0.496004
 20
0.940496
  0
VERTEX
  8
LAYER_1
 62
    39
  6
CONTINUOUS
 10
-0.504004
 20
0.932496
  0
VERTEX
  8
LAYER_1
 62
    39
  6
CONTINUOUS
 10
-0.519004
 20
0.932496
  0
VERTEX
  8
LAYER_1
 62
    39
  6
CONTINUOUS
 10
-0.527004
 20
0.940496
  0
VERTEX
  8
LAYER_1
 62
    39
  6
CONTINUOUS
 10
-0.527004
 20
0.973496
  0
VERTEX
  8
LAYER_1
 62
    39
  6
CONTINUOUS
 10
-0.519004
 20
0.980496
  0
VERTEX
  8
LAYER_1
 62
    39
  6
CONTINUOUS
 10
-0.504004
 20
0.980496
  0
VERTEX
  8
LAYER_1
 62
    39
  6
CONTINUOUS
 10
-0.496004
 20
0.973496
  0
SEQEND
  8
0
  0
POLYLINE
  8
LAYER_1
 62
    39
  6
CONTINUOUS
 66
     1
 40
0.004390
 41
0.004390
  0
VERTEX
  8
LAYER_1
 62
    39
  6
CONTINUOUS
 10
-0.448004
 20
0.949496
  0
VERTEX
  8
LAYER_1
 62
    39
  6
CONTINUOUS
 10
-0.479004
 20
0.949496
  0
VERTEX
  8
LAYER_1
 62
    39
  6
CONTINUOUS
 10
-0.479004
 20
0.957496
  0
VERTEX
  8
LAYER_1
 62
    39
  6
CONTINUOUS
 10
-0.455004
 20
0.980496
  0
VERTEX
  8
LAYER_1
 62
    39
  6
CONTINUOUS
 10
-0.455004
 20
0.932496
  0
SEQEND
  8
0
  0
POLYLINE
  8
LAYER_1
 62
    39
  6
CONTINUOUS
 66
     1
 40
0.004390
 41
0.004390
  0
VERTEX
  8
LAYER_1
 62
    39
  6
CONTINUOUS
 10
-0.542004
 20
0.886496
  0
VERTEX
  8
LAYER_1
 62
    39
  6
CONTINUOUS
 10
-0.542004
 20
0.838496
  0
VERTEX
  8
LAYER_1
 62
    39
  6
CONTINUOUS
 10
-0.542004
 20
0.886496
  0
VERTEX
  8
LAYER_1
 62
    39
  6
CONTINUOUS
 10
-0.518004
 20
0.886496
  0
VERTEX
  8
LAYER_1
 62
    39
  6
CONTINUOUS
 10
-0.511004
 20
0.877496
  0
VERTEX
  8
LAYER_1
 62
    39
  6
CONTINUOUS
 10
-0.511004
 20
0.869496
  0
VERTEX
  8
LAYER_1
 62
    39
  6
CONTINUOUS
 10
-0.518004
 20
0.861496
  0
VERTEX
  8
LAYER_1
 62
    39
  6
CONTINUOUS
 10
-0.542004
 20
0.861496
  0
VERTEX
  8
LAYER_1
 62
    39
  6
CONTINUOUS
 10
-0.534004
 20
0.861496
  0
VERTEX
  8
LAYER_1
 62
    39
  6
CONTINUOUS
 10
-0.511004
 20
0.838496
  0
SEQEND
  8
0
  0
POLYLINE
  8
LAYER_1
 62
    39
  6
CONTINUOUS
 66
     1
 40
0.004390
 41
0.004390
  0
VERTEX
  8
LAYER_1
 62
    39
  6
CONTINUOUS
 10
-0.495004
 20
0.846496
  0
VERTEX
  8
LAYER_1
 62
    39
  6
CONTINUOUS
 10
-0.487004
 20
0.838496
  0
VERTEX
  8
LAYER_1
 62
    39
  6
CONTINUOUS
 10
-0.470004
 20
0.838496
  0
VERTEX
  8
LAYER_1
 62
    39
  6
CONTINUOUS
 10
-0.462004
 20
0.846496
  0
VERTEX
  8
LAYER_1
 62
    39
  6
CONTINUOUS
 10
-0.462004
 20
0.861496
  0
VERTEX
  8
LAYER_1
 62
    39
  6
CONTINUOUS
 10
-0.470004
 20
0.869496
  0
VERTEX
  8
LAYER_1
 62
    39
  6
CONTINUOUS
 10
-0.495004
 20
0.869496
  0
VERTEX
  8
LAYER_1
 62
    39
  6
CONTINUOUS
 10
-0.495004
 20
0.886496
  0
VERTEX
  8
LAYER_1
 62
    39
  6
CONTINUOUS
 10
-0.462004
 20
0.886496
  0
SEQEND
  8
0
  0
POLYLINE
  8
LAYER_1
 62
    39
  6
CONTINUOUS
 66
     1
 40
0.004390
 41
0.004390
  0
VERTEX
  8
LAYER_1
 62
    39
  6
CONTINUOUS
 10
-0.488004
 20
1.088496
  0
VERTEX
  8
LAYER_1
 62
    39
  6
CONTINUOUS
 10
-0.488004
 20
1.288496
  0
SEQEND
  8
0
  0
POLYLINE
  8
LAYER_1
 62
    39
  6
CONTINUOUS
 66
     1
 40
0.004390
 41
0.004390
 70
     1
  0
VERTEX
  8
LAYER_1
 62
    39
  6
CONTINUOUS
 10
-0.488004
 20
1.288496
  0
VERTEX
  8
LAYER_1
 62
    39
  6
CONTINUOUS
 10
-0.488004
 20
1.292496
  0
VERTEX
  8
LAYER_1
 62
    39
  6
CONTINUOUS
 10
-0.489004
 20
1.297496
  0
VERTEX
  8
LAYER_1
 62
    39
  6
CONTINUOUS
 10
-0.490004
 20
1.302496
  0
VERTEX
  8
LAYER_1
 62
    39
  6
CONTINUOUS
 10
-0.492004
 20
1.307496
  0
VERTEX
  8
LAYER_1
 62
    39
  6
CONTINUOUS
 10
-0.494004
 20
1.312496
  0
VERTEX
  8
LAYER_1
 62
    39
  6
CONTINUOUS
 10
-0.497004
 20
1.316496
  0
VERTEX
  8
LAYER_1
 62
    39
  6
CONTINUOUS
 10
-0.500004
 20
1.320496
  0
VERTEX
  8
LAYER_1
 62
    39
  6
CONTINUOUS
 10
-0.503004
 20
1.324496
  0
VERTEX
  8
LAYER_1
 62
    39
  6
CONTINUOUS
 10
-0.507004
 20
1.327496
  0
VERTEX
  8
LAYER_1
 62
    39
  6
CONTINUOUS
 10
-0.512004
 20
1.330496
  0
VERTEX
  8
LAYER_1
 62
    39
  6
CONTINUOUS
 10
-0.515004
 20
1.333496
  0
VERTEX
  8
LAYER_1
 62
    39
  6
CONTINUOUS
 10
-0.520004
 20
1.335496
  0
VERTEX
  8
LAYER_1
 62
    39
  6
CONTINUOUS
 10
-0.525004
 20
1.336496
  0
VERTEX
  8
LAYER_1
 62
    39
  6
CONTINUOUS
 10
-0.530004
 20
1.337496
  0
VERTEX
  8
LAYER_1
 62
    39
  6
CONTINUOUS
 10
-0.535004
 20
1.338496
  0
VERTEX
  8
LAYER_1
 62
    39
  6
CONTINUOUS
 10
-0.540004
 20
1.338496
  0
VERTEX
  8
LAYER_1
 62
    39
  6
CONTINUOUS
 10
-0.545004
 20
1.337496
  0
VERTEX
  8
LAYER_1
 62
    39
  6
CONTINUOUS
 10
-0.550004
 20
1.336496
  0
VERTEX
  8
LAYER_1
 62
    39
  6
CONTINUOUS
 10
-0.555004
 20
1.335496
  0
VERTEX
  8
LAYER_1
 62
    39
  6
CONTINUOUS
 10
-0.560004
 20
1.333496
  0
VERTEX
  8
LAYER_1
 62
    39
  6
CONTINUOUS
 10
-0.564004
 20
1.330496
  0
VERTEX
  8
LAYER_1
 62
    39
  6
CONTINUOUS
 10
-0.568004
 20
1.327496
  0
VERTEX
  8
LAYER_1
 62
    39
  6
CONTINUOUS
 10
-0.572004
 20
1.324496
  0
VERTEX
  8
LAYER_1
 62
    39
  6
CONTINUOUS
 10
-0.575004
 20
1.320496
  0
VERTEX
  8
LAYER_1
 62
    39
  6
CONTINUOUS
 10
-0.578004
 20
1.316496
  0
VERTEX
  8
LAYER_1
 62
    39
  6
CONTINUOUS
 10
-0.581004
 20
1.312496
  0
VERTEX
  8
LAYER_1
 62
    39
  6
CONTINUOUS
 10
-0.583004
 20
1.307496
  0
VERTEX
  8
LAYER_1
 62
    39
  6
CONTINUOUS
 10
-0.585004
 20
1.302496
  0
VERTEX
  8
LAYER_1
 62
    39
  6
CONTINUOUS
 10
-0.586004
 20
1.297496
  0
VERTEX
  8
LAYER_1
 62
    39
  6
CONTINUOUS
 10
-0.587004
 20
1.292496
  0
VERTEX
  8
LAYER_1
 62
    39
  6
CONTINUOUS
 10
-0.587004
 20
1.288496
  0
SEQEND
  8
0
  0
POLYLINE
  8
LAYER_1
 62
    39
  6
CONTINUOUS
 66
     1
 40
0.004390
 41
0.004390
  0
VERTEX
  8
LAYER_1
 62
    39
  6
CONTINUOUS
 10
-0.587004
 20
1.288496
  0
VERTEX
  8
LAYER_1
 62
    39
  6
CONTINUOUS
 10
-0.587004
 20
1.088496
  0
SEQEND
  8
0
  0
POLYLINE
  8
LAYER_1
 62
    39
  6
CONTINUOUS
 66
     1
 40
0.004390
 41
0.004390
  0
VERTEX
  8
LAYER_1
 62
    39
  6
CONTINUOUS
 10
-0.587004
 20
1.088496
  0
VERTEX
  8
LAYER_1
 62
    39
  6
CONTINUOUS
 10
-0.587004
 20
1.083496
  0
VERTEX
  8
LAYER_1
 62
    39
  6
CONTINUOUS
 10
-0.586004
 20
1.078496
  0
VERTEX
  8
LAYER_1
 62
    39
  6
CONTINUOUS
 10
-0.585004
 20
1.073496
  0
VERTEX
  8
LAYER_1
 62
    39
  6
CONTINUOUS
 10
-0.583004
 20
1.068496
  0
VERTEX
  8
LAYER_1
 62
    39
  6
CONTINUOUS
 10
-0.581004
 20
1.063496
  0
VERTEX
  8
LAYER_1
 62
    39
  6
CONTINUOUS
 10
-0.578004
 20
1.059496
  0
VERTEX
  8
LAYER_1
 62
    39
  6
CONTINUOUS
 10
-0.575004
 20
1.055496
  0
VERTEX
  8
LAYER_1
 62
    39
  6
CONTINUOUS
 10
-0.572004
 20
1.051496
  0
VERTEX
  8
LAYER_1
 62
    39
  6
CONTINUOUS
 10
-0.568004
 20
1.048496
  0
VERTEX
  8
LAYER_1
 62
    39
  6
CONTINUOUS
 10
-0.564004
 20
1.045496
  0
VERTEX
  8
LAYER_1
 62
    39
  6
CONTINUOUS
 10
-0.560004
 20
1.042496
  0
VERTEX
  8
LAYER_1
 62
    39
  6
CONTINUOUS
 10
-0.555004
 20
1.040496
  0
VERTEX
  8
LAYER_1
 62
    39
  6
CONTINUOUS
 10
-0.550004
 20
1.039496
  0
VERTEX
  8
LAYER_1
 62
    39
  6
CONTINUOUS
 10
-0.545004
 20
1.038496
  0
VERTEX
  8
LAYER_1
 62
    39
  6
CONTINUOUS
 10
-0.540004
 20
1.038496
  0
VERTEX
  8
LAYER_1
 62
    39
  6
CONTINUOUS
 10
-0.535004
 20
1.038496
  0
VERTEX
  8
LAYER_1
 62
    39
  6
CONTINUOUS
 10
-0.530004
 20
1.038496
  0
VERTEX
  8
LAYER_1
 62
    39
  6
CONTINUOUS
 10
-0.525004
 20
1.039496
  0
VERTEX
  8
LAYER_1
 62
    39
  6
CONTINUOUS
 10
-0.520004
 20
1.040496
  0
VERTEX
  8
LAYER_1
 62
    39
  6
CONTINUOUS
 10
-0.515004
 20
1.042496
  0
VERTEX
  8
LAYER_1
 62
    39
  6
CONTINUOUS
 10
-0.512004
 20
1.045496
  0
VERTEX
  8
LAYER_1
 62
    39
  6
CONTINUOUS
 10
-0.507004
 20
1.048496
  0
VERTEX
  8
LAYER_1
 62
    39
  6
CONTINUOUS
 10
-0.503004
 20
1.051496
  0
VERTEX
  8
LAYER_1
 62
    39
  6
CONTINUOUS
 10
-0.500004
 20
1.055496
  0
VERTEX
  8
LAYER_1
 62
    39
  6
CONTINUOUS
 10
-0.497004
 20
1.059496
  0
VERTEX
  8
LAYER_1
 62
    39
  6
CONTINUOUS
 10
-0.494004
 20
1.063496
  0
VERTEX
  8
LAYER_1
 62
    39
  6
CONTINUOUS
 10
-0.492004
 20
1.068496
  0
VERTEX
  8
LAYER_1
 62
    39
  6
CONTINUOUS
 10
-0.490004
 20
1.073496
  0
VERTEX
  8
LAYER_1
 62
    39
  6
CONTINUOUS
 10
-0.489004
 20
1.078496
  0
VERTEX
  8
LAYER_1
 62
    39
  6
CONTINUOUS
 10
-0.488004
 20
1.083496
  0
VERTEX
  8
LAYER_1
 62
    39
  6
CONTINUOUS
 10
-0.488004
 20
1.088496
  0
SEQEND
  8
0
  0
POLYLINE
  8
LAYER_1
 62
    39
  6
CONTINUOUS
 66
     1
 40
0.004390
 41
0.004390
  0
VERTEX
  8
LAYER_1
 62
    39
  6
CONTINUOUS
 10
-0.508004
 20
1.167496
  0
VERTEX
  8
LAYER_1
 62
    39
  6
CONTINUOUS
 10
-0.517004
 20
1.177496
  0
VERTEX
  8
LAYER_1
 62
    39
  6
CONTINUOUS
 10
-0.508004
 20
1.167496
  0
VERTEX
  8
LAYER_1
 62
    39
  6
CONTINUOUS
 10
-0.508004
 20
1.148496
  0
VERTEX
  8
LAYER_1
 62
    39
  6
CONTINUOUS
 10
-0.517004
 20
1.138496
  0
VERTEX
  8
LAYER_1
 62
    39
  6
CONTINUOUS
 10
-0.558004
 20
1.138496
  0
VERTEX
  8
LAYER_1
 62
    39
  6
CONTINUOUS
 10
-0.568004
 20
1.148496
  0
VERTEX
  8
LAYER_1
 62
    39
  6
CONTINUOUS
 10
-0.568004
 20
1.167496
  0
VERTEX
  8
LAYER_1
 62
    39
  6
CONTINUOUS
 10
-0.558004
 20
1.177496
  0
SEQEND
  8
0
  0
POLYLINE
  8
LAYER_1
 62
    39
  6
CONTINUOUS
 66
     1
 40
0.004390
 41
0.004390
  0
VERTEX
  8
LAYER_1
 62
    39
  6
CONTINUOUS
 10
-0.508004
 20
1.208496
  0
VERTEX
  8
LAYER_1
 62
    39
  6
CONTINUOUS
 10
-0.508004
 20
1.218496
  0
VERTEX
  8
LAYER_1
 62
    39
  6
CONTINUOUS
 10
-0.527004
 20
1.237496
  0
VERTEX
  8
LAYER_1
 62
    39
  6
CONTINUOUS
 10
-0.558004
 20
1.237496
  0
VERTEX
  8
LAYER_1
 62
    39
  6
CONTINUOUS
 10
-0.568004
 20
1.227496
  0
VERTEX
  8
LAYER_1
 62
    39
  6
CONTINUOUS
 10
-0.568004
 20
1.208496
  0
VERTEX
  8
LAYER_1
 62
    39
  6
CONTINUOUS
 10
-0.558004
 20
1.198496
  0
VERTEX
  8
LAYER_1
 62
    39
  6
CONTINUOUS
 10
-0.548004
 20
1.198496
  0
VERTEX
  8
LAYER_1
 62
    39
  6
CONTINUOUS
 10
-0.537004
 20
1.208496
  0
VERTEX
  8
LAYER_1
 62
    39
  6
CONTINUOUS
 10
-0.537004
 20
1.237496
  0
SEQEND
  8
0
  0
POLYLINE
  8
LAYER_1
 62
    39
  6
CONTINUOUS
 66
     1
 40
0.004390
 41
0.004390
  0
VERTEX
  8
LAYER_1
 62
    39
  6
CONTINUOUS
 10
-0.636004
 20
1.098496
  0
VERTEX
  8
LAYER_1
 62
    39
  6
CONTINUOUS
 10
-0.667004
 20
1.098496
  0
SEQEND
  8
0
  0
POLYLINE
  8
LAYER_1
 62
    39
  6
CONTINUOUS
 66
     1
 40
0.004390
 41
0.004390
  0
VERTEX
  8
LAYER_1
 62
    39
  6
CONTINUOUS
 10
-0.651004
 20
1.113496
  0
VERTEX
  8
LAYER_1
 62
    39
  6
CONTINUOUS
 10
-0.651004
 20
1.082496
  0
SEQEND
  8
0
  0
POLYLINE
  8
LAYER_1
 62
    39
  6
CONTINUOUS
 66
     1
 40
0.004390
 41
0.004390
  0
VERTEX
  8
LAYER_1
 62
    39
  6
CONTINUOUS
 10
-0.688004
 20
1.117496
  0
VERTEX
  8
LAYER_1
 62
    39
  6
CONTINUOUS
 10
-0.698004
 20
1.127496
  0
VERTEX
  8
LAYER_1
 62
    39
  6
CONTINUOUS
 10
-0.688004
 20
1.117496
  0
VERTEX
  8
LAYER_1
 62
    39
  6
CONTINUOUS
 10
-0.688004
 20
1.098496
  0
VERTEX
  8
LAYER_1
 62
    39
  6
CONTINUOUS
 10
-0.698004
 20
1.088496
  0
VERTEX
  8
LAYER_1
 62
    39
  6
CONTINUOUS
 10
-0.738004
 20
1.088496
  0
VERTEX
  8
LAYER_1
 62
    39
  6
CONTINUOUS
 10
-0.748004
 20
1.098496
  0
VERTEX
  8
LAYER_1
 62
    39
  6
CONTINUOUS
 10
-0.748004
 20
1.117496
  0
VERTEX
  8
LAYER_1
 62
    39
  6
CONTINUOUS
 10
-0.738004
 20
1.127496
  0
SEQEND
  8
0
  0
POLYLINE
  8
LAYER_1
 62
    39
  6
CONTINUOUS
 66
     1
 40
0.004390
 41
0.004390
  0
VERTEX
  8
LAYER_1
 62
    39
  6
CONTINUOUS
 10
-0.717004
 20
1.148496
  0
VERTEX
  8
LAYER_1
 62
    39
  6
CONTINUOUS
 10
-0.717004
 20
1.177496
  0
VERTEX
  8
LAYER_1
 62
    39
  6
CONTINUOUS
 10
-0.707004
 20
1.187496
  0
VERTEX
  8
LAYER_1
 62
    39
  6
CONTINUOUS
 10
-0.698004
 20
1.187496
  0
VERTEX
  8
LAYER_1
 62
    39
  6
CONTINUOUS
 10
-0.688004
 20
1.177496
  0
VERTEX
  8
LAYER_1
 62
    39
  6
CONTINUOUS
 10
-0.688004
 20
1.158496
  0
VERTEX
  8
LAYER_1
 62
    39
  6
CONTINUOUS
 10
-0.698004
 20
1.148496
  0
VERTEX
  8
LAYER_1
 62
    39
  6
CONTINUOUS
 10
-0.727004
 20
1.148496
  0
VERTEX
  8
LAYER_1
 62
    39
  6
CONTINUOUS
 10
-0.748004
 20
1.167496
  0
VERTEX
  8
LAYER_1
 62
    39
  6
CONTINUOUS
 10
-0.748004
 20
1.177496
  0
SEQEND
  8
0
  0
POLYLINE
  8
LAYER_1
 62
    39
  6
CONTINUOUS
 66
     1
 40
0.004390
 41
0.004390
 70
     1
  0
VERTEX
  8
LAYER_1
 62
    39
  6
CONTINUOUS
 10
-0.613004
 20
1.138496
  0
VERTEX
  8
LAYER_1
 62
    39
  6
CONTINUOUS
 10
-0.613004
 20
1.143496
  0
VERTEX
  8
LAYER_1
 62
    39
  6
CONTINUOUS
 10
-0.613004
 20
1.148496
  0
VERTEX
  8
LAYER_1
 62
    39
  6
CONTINUOUS
 10
-0.614004
 20
1.153496
  0
VERTEX
  8
LAYER_1
 62
    39
  6
CONTINUOUS
 10
-0.615004
 20
1.158496
  0
VERTEX
  8
LAYER_1
 62
    39
  6
CONTINUOUS
 10
-0.616004
 20
1.163496
  0
VERTEX
  8
LAYER_1
 62
    39
  6
CONTINUOUS
 10
-0.617004
 20
1.167496
  0
VERTEX
  8
LAYER_1
 62
    39
  6
CONTINUOUS
 10
-0.619004
 20
1.171496
  0
VERTEX
  8
LAYER_1
 62
    39
  6
CONTINUOUS
 10
-0.621004
 20
1.176496
  0
VERTEX
  8
LAYER_1
 62
    39
  6
CONTINUOUS
 10
-0.623004
 20
1.181496
  0
VERTEX
  8
LAYER_1
 62
    39
  6
CONTINUOUS
 10
-0.625004
 20
1.185496
  0
VERTEX
  8
LAYER_1
 62
    39
  6
CONTINUOUS
 10
-0.628004
 20
1.190496
  0
VERTEX
  8
LAYER_1
 62
    39
  6
CONTINUOUS
 10
-0.630004
 20
1.194496
  0
VERTEX
  8
LAYER_1
 62
    39
  6
CONTINUOUS
 10
-0.633004
 20
1.198496
  0
VERTEX
  8
LAYER_1
 62
    39
  6
CONTINUOUS
 10
-0.636004
 20
1.202496
  0
VERTEX
  8
LAYER_1
 62
    39
  6
CONTINUOUS
 10
-0.639004
 20
1.206496
  0
VERTEX
  8
LAYER_1
 62
    39
  6
CONTINUOUS
 10
-0.642004
 20
1.209496
  0
VERTEX
  8
LAYER_1
 62
    39
  6
CONTINUOUS
 10
-0.646004
 20
1.213496
  0
VERTEX
  8
LAYER_1
 62
    39
  6
CONTINUOUS
 10
-0.650004
 20
1.216496
  0
VERTEX
  8
LAYER_1
 62
    39
  6
CONTINUOUS
 10
-0.654004
 20
1.219496
  0
VERTEX
  8
LAYER_1
 62
    39
  6
CONTINUOUS
 10
-0.658004
 20
1.222496
  0
VERTEX
  8
LAYER_1
 62
    39
  6
CONTINUOUS
 10
-0.662004
 20
1.225496
  0
VERTEX
  8
LAYER_1
 62
    39
  6
CONTINUOUS
 10
-0.667004
 20
1.226496
  0
VERTEX
  8
LAYER_1
 62
    39
  6
CONTINUOUS
 10
-0.671004
 20
1.228496
  0
VERTEX
  8
LAYER_1
 62
    39
  6
CONTINUOUS
 10
-0.676004
 20
1.230496
  0
VERTEX
  8
LAYER_1
 62
    39
  6
CONTINUOUS
 10
-0.681004
 20
1.232496
  0
VERTEX
  8
LAYER_1
 62
    39
  6
CONTINUOUS
 10
-0.686004
 20
1.233496
  0
VERTEX
  8
LAYER_1
 62
    39
  6
CONTINUOUS
 10
-0.691004
 20
1.235496
  0
VERTEX
  8
LAYER_1
 62
    39
  6
CONTINUOUS
 10
-0.696004
 20
1.236496
  0
VERTEX
  8
LAYER_1
 62
    39
  6
CONTINUOUS
 10
-0.700004
 20
1.236496
  0
VERTEX
  8
LAYER_1
 62
    39
  6
CONTINUOUS
 10
-0.705004
 20
1.237496
  0
VERTEX
  8
LAYER_1
 62
    39
  6
CONTINUOUS
 10
-0.710004
 20
1.237496
  0
VERTEX
  8
LAYER_1
 62
    39
  6
CONTINUOUS
 10
-0.715004
 20
1.237496
  0
VERTEX
  8
LAYER_1
 62
    39
  6
CONTINUOUS
 10
-0.720004
 20
1.237496
  0
VERTEX
  8
LAYER_1
 62
    39
  6
CONTINUOUS
 10
-0.725004
 20
1.236496
  0
VERTEX
  8
LAYER_1
 62
    39
  6
CONTINUOUS
 10
-0.730004
 20
1.236496
  0
VERTEX
  8
LAYER_1
 62
    39
  6
CONTINUOUS
 10
-0.735004
 20
1.235496
  0
VERTEX
  8
LAYER_1
 62
    39
  6
CONTINUOUS
 10
-0.740004
 20
1.233496
  0
VERTEX
  8
LAYER_1
 62
    39
  6
CONTINUOUS
 10
-0.745004
 20
1.232496
  0
VERTEX
  8
LAYER_1
 62
    39
  6
CONTINUOUS
 10
-0.749004
 20
1.230496
  0
VERTEX
  8
LAYER_1
 62
    39
  6
CONTINUOUS
 10
-0.754004
 20
1.228496
  0
VERTEX
  8
LAYER_1
 62
    39
  6
CONTINUOUS
 10
-0.759004
 20
1.226496
  0
VERTEX
  8
LAYER_1
 62
    39
  6
CONTINUOUS
 10
-0.762004
 20
1.225496
  0
VERTEX
  8
LAYER_1
 62
    39
  6
CONTINUOUS
 10
-0.766004
 20
1.222496
  0
VERTEX
  8
LAYER_1
 62
    39
  6
CONTINUOUS
 10
-0.771004
 20
1.219496
  0
VERTEX
  8
LAYER_1
 62
    39
  6
CONTINUOUS
 10
-0.775004
 20
1.216496
  0
VERTEX
  8
LAYER_1
 62
    39
  6
CONTINUOUS
 10
-0.778004
 20
1.213496
  0
VERTEX
  8
LAYER_1
 62
    39
  6
CONTINUOUS
 10
-0.782004
 20
1.209496
  0
VERTEX
  8
LAYER_1
 62
    39
  6
CONTINUOUS
 10
-0.786004
 20
1.206496
  0
VERTEX
  8
LAYER_1
 62
    39
  6
CONTINUOUS
 10
-0.789004
 20
1.202496
  0
VERTEX
  8
LAYER_1
 62
    39
  6
CONTINUOUS
 10
-0.792004
 20
1.198496
  0
VERTEX
  8
LAYER_1
 62
    39
  6
CONTINUOUS
 10
-0.795004
 20
1.194496
  0
VERTEX
  8
LAYER_1
 62
    39
  6
CONTINUOUS
 10
-0.798004
 20
1.190496
  0
VERTEX
  8
LAYER_1
 62
    39
  6
CONTINUOUS
 10
-0.800004
 20
1.185496
  0
VERTEX
  8
LAYER_1
 62
    39
  6
CONTINUOUS
 10
-0.803004
 20
1.181496
  0
VERTEX
  8
LAYER_1
 62
    39
  6
CONTINUOUS
 10
-0.805004
 20
1.176496
  0
VERTEX
  8
LAYER_1
 62
    39
  6
CONTINUOUS
 10
-0.807004
 20
1.171496
  0
VERTEX
  8
LAYER_1
 62
    39
  6
CONTINUOUS
 10
-0.808004
 20
1.167496
  0
VERTEX
  8
LAYER_1
 62
    39
  6
CONTINUOUS
 10
-0.810004
 20
1.163496
  0
VERTEX
  8
LAYER_1
 62
    39
  6
CONTINUOUS
 10
-0.811004
 20
1.158496
  0
VERTEX
  8
LAYER_1
 62
    39
  6
CONTINUOUS
 10
-0.812004
 20
1.153496
  0
VERTEX
  8
LAYER_1
 62
    39
  6
CONTINUOUS
 10
-0.812004
 20
1.148496
  0
VERTEX
  8
LAYER_1
 62
    39
  6
CONTINUOUS
 10
-0.813004
 20
1.143496
  0
VERTEX
  8
LAYER_1
 62
    39
  6
CONTINUOUS
 10
-0.813004
 20
1.138496
  0
VERTEX
  8
LAYER_1
 62
    39
  6
CONTINUOUS
 10
-0.813004
 20
1.133496
  0
VERTEX
  8
LAYER_1
 62
    39
  6
CONTINUOUS
 10
-0.812004
 20
1.127496
  0
VERTEX
  8
LAYER_1
 62
    39
  6
CONTINUOUS
 10
-0.812004
 20
1.122496
  0
VERTEX
  8
LAYER_1
 62
    39
  6
CONTINUOUS
 10
-0.811004
 20
1.117496
  0
VERTEX
  8
LAYER_1
 62
    39
  6
CONTINUOUS
 10
-0.810004
 20
1.113496
  0
VERTEX
  8
LAYER_1
 62
    39
  6
CONTINUOUS
 10
-0.808004
 20
1.108496
  0
VERTEX
  8
LAYER_1
 62
    39
  6
CONTINUOUS
 10
-0.807004
 20
1.103496
  0
VERTEX
  8
LAYER_1
 62
    39
  6
CONTINUOUS
 10
-0.805004
 20
1.099496
  0
VERTEX
  8
LAYER_1
 62
    39
  6
CONTINUOUS
 10
-0.803004
 20
1.095496
  0
VERTEX
  8
LAYER_1
 62
    39
  6
CONTINUOUS
 10
-0.800004
 20
1.090496
  0
VERTEX
  8
LAYER_1
 62
    39
  6
CONTINUOUS
 10
-0.798004
 20
1.086496
  0
VERTEX
  8
LAYER_1
 62
    39
  6
CONTINUOUS
 10
-0.795004
 20
1.081496
  0
VERTEX
  8
LAYER_1
 62
    39
  6
CONTINUOUS
 10
-0.792004
 20
1.077496
  0
VERTEX
  8
LAYER_1
 62
    39
  6
CONTINUOUS
 10
-0.789004
 20
1.073496
  0
VERTEX
  8
LAYER_1
 62
    39
  6
CONTINUOUS
 10
-0.786004
 20
1.069496
  0
VERTEX
  8
LAYER_1
 62
    39
  6
CONTINUOUS
 10
-0.782004
 20
1.066496
  0
VERTEX
  8
LAYER_1
 62
    39
  6
CONTINUOUS
 10
-0.778004
 20
1.062496
  0
VERTEX
  8
LAYER_1
 62
    39
  6
CONTINUOUS
 10
-0.775004
 20
1.059496
  0
VERTEX
  8
LAYER_1
 62
    39
  6
CONTINUOUS
 10
-0.771004
 20
1.056496
  0
VERTEX
  8
LAYER_1
 62
    39
  6
CONTINUOUS
 10
-0.766004
 20
1.053496
  0
VERTEX
  8
LAYER_1
 62
    39
  6
CONTINUOUS
 10
-0.762004
 20
1.051496
  0
VERTEX
  8
LAYER_1
 62
    39
  6
CONTINUOUS
 10
-0.759004
 20
1.048496
  0
VERTEX
  8
LAYER_1
 62
    39
  6
CONTINUOUS
 10
-0.754004
 20
1.046496
  0
VERTEX
  8
LAYER_1
 62
    39
  6
CONTINUOUS
 10
-0.749004
 20
1.044496
  0
VERTEX
  8
LAYER_1
 62
    39
  6
CONTINUOUS
 10
-0.745004
 20
1.042496
  0
VERTEX
  8
LAYER_1
 62
    39
  6
CONTINUOUS
 10
-0.740004
 20
1.041496
  0
VERTEX
  8
LAYER_1
 62
    39
  6
CONTINUOUS
 10
-0.735004
 20
1.040496
  0
VERTEX
  8
LAYER_1
 62
    39
  6
CONTINUOUS
 10
-0.730004
 20
1.039496
  0
VERTEX
  8
LAYER_1
 62
    39
  6
CONTINUOUS
 10
-0.725004
 20
1.038496
  0
VERTEX
  8
LAYER_1
 62
    39
  6
CONTINUOUS
 10
-0.720004
 20
1.038496
  0
VERTEX
  8
LAYER_1
 62
    39
  6
CONTINUOUS
 10
-0.715004
 20
1.038496
  0
VERTEX
  8
LAYER_1
 62
    39
  6
CONTINUOUS
 10
-0.710004
 20
1.038496
  0
VERTEX
  8
LAYER_1
 62
    39
  6
CONTINUOUS
 10
-0.705004
 20
1.038496
  0
VERTEX
  8
LAYER_1
 62
    39
  6
CONTINUOUS
 10
-0.700004
 20
1.038496
  0
VERTEX
  8
LAYER_1
 62
    39
  6
CONTINUOUS
 10
-0.696004
 20
1.039496
  0
VERTEX
  8
LAYER_1
 62
    39
  6
CONTINUOUS
 10
-0.691004
 20
1.040496
  0
VERTEX
  8
LAYER_1
 62
    39
  6
CONTINUOUS
 10
-0.686004
 20
1.041496
  0
VERTEX
  8
LAYER_1
 62
    39
  6
CONTINUOUS
 10
-0.681004
 20
1.042496
  0
VERTEX
  8
LAYER_1
 62
    39
  6
CONTINUOUS
 10
-0.676004
 20
1.044496
  0
VERTEX
  8
LAYER_1
 62
    39
  6
CONTINUOUS
 10
-0.671004
 20
1.046496
  0
VERTEX
  8
LAYER_1
 62
    39
  6
CONTINUOUS
 10
-0.667004
 20
1.048496
  0
VERTEX
  8
LAYER_1
 62
    39
  6
CONTINUOUS
 10
-0.662004
 20
1.051496
  0
VERTEX
  8
LAYER_1
 62
    39
  6
CONTINUOUS
 10
-0.658004
 20
1.053496
  0
VERTEX
  8
LAYER_1
 62
    39
  6
CONTINUOUS
 10
-0.654004
 20
1.056496
  0
VERTEX
  8
LAYER_1
 62
    39
  6
CONTINUOUS
 10
-0.650004
 20
1.059496
  0
VERTEX
  8
LAYER_1
 62
    39
  6
CONTINUOUS
 10
-0.646004
 20
1.062496
  0
VERTEX
  8
LAYER_1
 62
    39
  6
CONTINUOUS
 10
-0.642004
 20
1.066496
  0
VERTEX
  8
LAYER_1
 62
    39
  6
CONTINUOUS
 10
-0.639004
 20
1.069496
  0
VERTEX
  8
LAYER_1
 62
    39
  6
CONTINUOUS
 10
-0.636004
 20
1.073496
  0
VERTEX
  8
LAYER_1
 62
    39
  6
CONTINUOUS
 10
-0.633004
 20
1.077496
  0
VERTEX
  8
LAYER_1
 62
    39
  6
CONTINUOUS
 10
-0.630004
 20
1.081496
  0
VERTEX
  8
LAYER_1
 62
    39
  6
CONTINUOUS
 10
-0.628004
 20
1.086496
  0
VERTEX
  8
LAYER_1
 62
    39
  6
CONTINUOUS
 10
-0.625004
 20
1.090496
  0
VERTEX
  8
LAYER_1
 62
    39
  6
CONTINUOUS
 10
-0.623004
 20
1.095496
  0
VERTEX
  8
LAYER_1
 62
    39
  6
CONTINUOUS
 10
-0.621004
 20
1.099496
  0
VERTEX
  8
LAYER_1
 62
    39
  6
CONTINUOUS
 10
-0.619004
 20
1.103496
  0
VERTEX
  8
LAYER_1
 62
    39
  6
CONTINUOUS
 10
-0.617004
 20
1.108496
  0
VERTEX
  8
LAYER_1
 62
    39
  6
CONTINUOUS
 10
-0.616004
 20
1.113496
  0
VERTEX
  8
LAYER_1
 62
    39
  6
CONTINUOUS
 10
-0.615004
 20
1.117496
  0
VERTEX
  8
LAYER_1
 62
    39
  6
CONTINUOUS
 10
-0.614004
 20
1.122496
  0
VERTEX
  8
LAYER_1
 62
    39
  6
CONTINUOUS
 10
-0.613004
 20
1.127496
  0
VERTEX
  8
LAYER_1
 62
    39
  6
CONTINUOUS
 10
-0.613004
 20
1.133496
  0
SEQEND
  8
0
  0
POLYLINE
  8
LAYER_1
 62
    39
  6
CONTINUOUS
 66
     1
 40
0.004390
 41
0.004390
 70
     1
  0
VERTEX
  8
LAYER_1
 62
    39
  6
CONTINUOUS
 10
-0.688004
 20
1.362496
  0
VERTEX
  8
LAYER_1
 62
    39
  6
CONTINUOUS
 10
-0.688004
 20
1.367496
  0
VERTEX
  8
LAYER_1
 62
    39
  6
CONTINUOUS
 10
-0.689004
 20
1.372496
  0
VERTEX
  8
LAYER_1
 62
    39
  6
CONTINUOUS
 10
-0.690004
 20
1.377496
  0
VERTEX
  8
LAYER_1
 62
    39
  6
CONTINUOUS
 10
-0.692004
 20
1.382496
  0
VERTEX
  8
LAYER_1
 62
    39
  6
CONTINUOUS
 10
-0.694004
 20
1.386496
  0
VERTEX
  8
LAYER_1
 62
    39
  6
CONTINUOUS
 10
-0.697004
 20
1.391496
  0
VERTEX
  8
LAYER_1
 62
    39
  6
CONTINUOUS
 10
-0.700004
 20
1.395496
  0
VERTEX
  8
LAYER_1
 62
    39
  6
CONTINUOUS
 10
-0.702004
 20
1.399496
  0
VERTEX
  8
LAYER_1
 62
    39
  6
CONTINUOUS
 10
-0.706004
 20
1.402496
  0
VERTEX
  8
LAYER_1
 62
    39
  6
CONTINUOUS
 10
-0.710004
 20
1.405496
  0
VERTEX
  8
LAYER_1
 62
    39
  6
CONTINUOUS
 10
-0.714004
 20
1.407496
  0
VERTEX
  8
LAYER_1
 62
    39
  6
CONTINUOUS
 10
-0.719004
 20
1.409496
  0
VERTEX
  8
LAYER_1
 62
    39
  6
CONTINUOUS
 10
-0.724004
 20
1.411496
  0
VERTEX
  8
LAYER_1
 62
    39
  6
CONTINUOUS
 10
-0.729004
 20
1.412496
  0
VERTEX
  8
LAYER_1
 62
    39
  6
CONTINUOUS
 10
-0.734004
 20
1.413496
  0
VERTEX
  8
LAYER_1
 62
    39
  6
CONTINUOUS
 10
-0.739004
 20
1.413496
  0
VERTEX
  8
LAYER_1
 62
    39
  6
CONTINUOUS
 10
-0.744004
 20
1.413496
  0
VERTEX
  8
LAYER_1
 62
    39
  6
CONTINUOUS
 10
-0.749004
 20
1.412496
  0
VERTEX
  8
LAYER_1
 62
    39
  6
CONTINUOUS
 10
-0.754004
 20
1.410496
  0
VERTEX
  8
LAYER_1
 62
    39
  6
CONTINUOUS
 10
-0.758004
 20
1.409496
  0
VERTEX
  8
LAYER_1
 62
    39
  6
CONTINUOUS
 10
-0.762004
 20
1.406496
  0
VERTEX
  8
LAYER_1
 62
    39
  6
CONTINUOUS
 10
-0.766004
 20
1.403496
  0
VERTEX
  8
LAYER_1
 62
    39
  6
CONTINUOUS
 10
-0.770004
 20
1.400496
  0
VERTEX
  8
LAYER_1
 62
    39
  6
CONTINUOUS
 10
-0.774004
 20
1.397496
  0
VERTEX
  8
LAYER_1
 62
    39
  6
CONTINUOUS
 10
-0.777004
 20
1.393496
  0
VERTEX
  8
LAYER_1
 62
    39
  6
CONTINUOUS
 10
-0.780004
 20
1.389496
  0
VERTEX
  8
LAYER_1
 62
    39
  6
CONTINUOUS
 10
-0.782004
 20
1.384496
  0
VERTEX
  8
LAYER_1
 62
    39
  6
CONTINUOUS
 10
-0.784004
 20
1.380496
  0
VERTEX
  8
LAYER_1
 62
    39
  6
CONTINUOUS
 10
-0.786004
 20
1.375496
  0
VERTEX
  8
LAYER_1
 62
    39
  6
CONTINUOUS
 10
-0.787004
 20
1.370496
  0
VERTEX
  8
LAYER_1
 62
    39
  6
CONTINUOUS
 10
-0.787004
 20
1.365496
  0
VERTEX
  8
LAYER_1
 62
    39
  6
CONTINUOUS
 10
-0.787004
 20
1.360496
  0
VERTEX
  8
LAYER_1
 62
    39
  6
CONTINUOUS
 10
-0.787004
 20
1.355496
  0
VERTEX
  8
LAYER_1
 62
    39
  6
CONTINUOUS
 10
-0.786004
 20
1.350496
  0
VERTEX
  8
LAYER_1
 62
    39
  6
CONTINUOUS
 10
-0.784004
 20
1.346496
  0
VERTEX
  8
LAYER_1
 62
    39
  6
CONTINUOUS
 10
-0.782004
 20
1.341496
  0
VERTEX
  8
LAYER_1
 62
    39
  6
CONTINUOUS
 10
-0.780004
 20
1.337496
  0
VERTEX
  8
LAYER_1
 62
    39
  6
CONTINUOUS
 10
-0.777004
 20
1.333496
  0
VERTEX
  8
LAYER_1
 62
    39
  6
CONTINUOUS
 10
-0.774004
 20
1.329496
  0
VERTEX
  8
LAYER_1
 62
    39
  6
CONTINUOUS
 10
-0.770004
 20
1.325496
  0
VERTEX
  8
LAYER_1
 62
    39
  6
CONTINUOUS
 10
-0.766004
 20
1.322496
  0
VERTEX
  8
LAYER_1
 62
    39
  6
CONTINUOUS
 10
-0.762004
 20
1.319496
  0
VERTEX
  8
LAYER_1
 62
    39
  6
CONTINUOUS
 10
-0.758004
 20
1.317496
  0
VERTEX
  8
LAYER_1
 62
    39
  6
CONTINUOUS
 10
-0.754004
 20
1.315496
  0
VERTEX
  8
LAYER_1
 62
    39
  6
CONTINUOUS
 10
-0.749004
 20
1.314496
  0
VERTEX
  8
LAYER_1
 62
    39
  6
CONTINUOUS
 10
-0.744004
 20
1.313496
  0
VERTEX
  8
LAYER_1
 62
    39
  6
CONTINUOUS
 10
-0.739004
 20
1.312496
  0
VERTEX
  8
LAYER_1
 62
    39
  6
CONTINUOUS
 10
-0.734004
 20
1.313496
  0
VERTEX
  8
LAYER_1
 62
    39
  6
CONTINUOUS
 10
-0.729004
 20
1.313496
  0
VERTEX
  8
LAYER_1
 62
    39
  6
CONTINUOUS
 10
-0.724004
 20
1.314496
  0
VERTEX
  8
LAYER_1
 62
    39
  6
CONTINUOUS
 10
-0.719004
 20
1.316496
  0
VERTEX
  8
LAYER_1
 62
    39
  6
CONTINUOUS
 10
-0.714004
 20
1.318496
  0
VERTEX
  8
LAYER_1
 62
    39
  6
CONTINUOUS
 10
-0.710004
 20
1.321496
  0
VERTEX
  8
LAYER_1
 62
    39
  6
CONTINUOUS
 10
-0.706004
 20
1.323496
  0
VERTEX
  8
LAYER_1
 62
    39
  6
CONTINUOUS
 10
-0.702004
 20
1.327496
  0
VERTEX
  8
LAYER_1
 62
    39
  6
CONTINUOUS
 10
-0.700004
 20
1.331496
  0
VERTEX
  8
LAYER_1
 62
    39
  6
CONTINUOUS
 10
-0.697004
 20
1.335496
  0
VERTEX
  8
LAYER_1
 62
    39
  6
CONTINUOUS
 10
-0.694004
 20
1.339496
  0
VERTEX
  8
LAYER_1
 62
    39
  6
CONTINUOUS
 10
-0.692004
 20
1.343496
  0
VERTEX
  8
LAYER_1
 62
    39
  6
CONTINUOUS
 10
-0.690004
 20
1.348496
  0
VERTEX
  8
LAYER_1
 62
    39
  6
CONTINUOUS
 10
-0.689004
 20
1.352496
  0
VERTEX
  8
LAYER_1
 62
    39
  6
CONTINUOUS
 10
-0.688004
 20
1.357496
  0
SEQEND
  8
0
  0
POLYLINE
  8
LAYER_1
 62
    39
  6
CONTINUOUS
 66
     1
 40
0.004390
 41
0.004390
  0
VERTEX
  8
LAYER_1
 62
    39
  6
CONTINUOUS
 10
-0.712004
 20
1.487496
  0
VERTEX
  8
LAYER_1
 62
    39
  6
CONTINUOUS
 10
-0.962004
 20
1.487496
  0
VERTEX
  8
LAYER_1
 62
    39
  6
CONTINUOUS
 10
-0.962004
 20
1.237496
  0
SEQEND
  8
0
  0
POLYLINE
  8
LAYER_1
 62
    39
  6
CONTINUOUS
 66
     1
 40
0.004390
 41
0.004390
  0
VERTEX
  8
LAYER_1
 62
    39
  6
CONTINUOUS
 10
-0.878004
 20
1.297496
  0
VERTEX
  8
LAYER_1
 62
    39
  6
CONTINUOUS
 10
-0.878004
 20
1.338496
  0
VERTEX
  8
LAYER_1
 62
    39
  6
CONTINUOUS
 10
-0.878004
 20
1.317496
  0
VERTEX
  8
LAYER_1
 62
    39
  6
CONTINUOUS
 10
-0.818004
 20
1.317496
  0
SEQEND
  8
0
  0
POLYLINE
  8
LAYER_1
 62
    39
  6
CONTINUOUS
 66
     1
 40
0.004390
 41
0.004390
  0
VERTEX
  8
LAYER_1
 62
    39
  6
CONTINUOUS
 10
-0.868004
 20
1.357496
  0
VERTEX
  8
LAYER_1
 62
    39
  6
CONTINUOUS
 10
-0.878004
 20
1.367496
  0
VERTEX
  8
LAYER_1
 62
    39
  6
CONTINUOUS
 10
-0.818004
 20
1.367496
  0
VERTEX
  8
LAYER_1
 62
    39
  6
CONTINUOUS
 10
-0.818004
 20
1.357496
  0
VERTEX
  8
LAYER_1
 62
    39
  6
CONTINUOUS
 10
-0.818004
 20
1.377496
  0
SEQEND
  8
0
  0
POLYLINE
  8
LAYER_1
 62
    39
  6
CONTINUOUS
 66
     1
 40
0.004390
 41
0.004390
  0
VERTEX
  8
LAYER_1
 62
    39
  6
CONTINUOUS
 10
-0.837004
 20
1.398496
  0
VERTEX
  8
LAYER_1
 62
    39
  6
CONTINUOUS
 10
-0.837004
 20
1.437496
  0
VERTEX
  8
LAYER_1
 62
    39
  6
CONTINUOUS
 10
-0.837004
 20
1.398496
  0
VERTEX
  8
LAYER_1
 62
    39
  6
CONTINUOUS
 10
-0.847004
 20
1.398496
  0
VERTEX
  8
LAYER_1
 62
    39
  6
CONTINUOUS
 10
-0.878004
 20
1.427496
  0
VERTEX
  8
LAYER_1
 62
    39
  6
CONTINUOUS
 10
-0.818004
 20
1.427496
  0
SEQEND
  8
0
  0
POLYLINE
  8
LAYER_1
 62
    39
  6
CONTINUOUS
 66
     1
 40
0.004390
 41
0.004390
  0
VERTEX
  8
LAYER_1
 62
    39
  6
CONTINUOUS
 10
-0.962004
 20
1.487496
  0
VERTEX
  8
LAYER_1
 62
    39
  6
CONTINUOUS
 10
1.037996
 20
1.487496
  0
VERTEX
  8
LAYER_1
 62
    39
  6
CONTINUOUS
 10
0.787996
 20
1.487496
  0
SEQEND
  8
0
  0
POLYLINE
  8
LAYER_1
 62
    39
  6
CONTINUOUS
 66
     1
 40
0.004390
 41
0.004390
  0
VERTEX
  8
LAYER_1
 62
    39
  6
CONTINUOUS
 10
1.037996
 20
1.487496
  0
VERTEX
  8
LAYER_1
 62
    39
  6
CONTINUOUS
 10
1.037996
 20
1.237496
  0
SEQEND
  8
0
  0
POLYLINE
  8
LAYER_1
 62
    39
  6
CONTINUOUS
 66
     1
 40
0.004390
 41
0.004390
 70
     1
  0
VERTEX
  8
LAYER_1
 62
    39
  6
CONTINUOUS
 10
0.962996
 20
1.088496
  0
VERTEX
  8
LAYER_1
 62
    39
  6
CONTINUOUS
 10
0.961996
 20
1.093496
  0
VERTEX
  8
LAYER_1
 62
    39
  6
CONTINUOUS
 10
0.961996
 20
1.098496
  0
VERTEX
  8
LAYER_1
 62
    39
  6
CONTINUOUS
 10
0.959996
 20
1.102496
  0
VERTEX
  8
LAYER_1
 62
    39
  6
CONTINUOUS
 10
0.958996
 20
1.107496
  0
VERTEX
  8
LAYER_1
 62
    39
  6
CONTINUOUS
 10
0.955996
 20
1.111496
  0
VERTEX
  8
LAYER_1
 62
    39
  6
CONTINUOUS
 10
0.953996
 20
1.115496
  0
VERTEX
  8
LAYER_1
 62
    39
  6
CONTINUOUS
 10
0.950996
 20
1.119496
  0
VERTEX
  8
LAYER_1
 62
    39
  6
CONTINUOUS
 10
0.946996
 20
1.123496
  0
VERTEX
  8
LAYER_1
 62
    39
  6
CONTINUOUS
 10
0.942996
 20
1.127496
  0
VERTEX
  8
LAYER_1
 62
    39
  6
CONTINUOUS
 10
0.938996
 20
1.129496
  0
VERTEX
  8
LAYER_1
 62
    39
  6
CONTINUOUS
 10
0.934996
 20
1.132496
  0
VERTEX
  8
LAYER_1
 62
    39
  6
CONTINUOUS
 10
0.929996
 20
1.134496
  0
VERTEX
  8
LAYER_1
 62
    39
  6
CONTINUOUS
 10
0.925996
 20
1.136496
  0
VERTEX
  8
LAYER_1
 62
    39
  6
CONTINUOUS
 10
0.921996
 20
1.137496
  0
VERTEX
  8
LAYER_1
 62
    39
  6
CONTINUOUS
 10
0.916996
 20
1.137496
  0
VERTEX
  8
LAYER_1
 62
    39
  6
CONTINUOUS
 10
0.911996
 20
1.138496
  0
VERTEX
  8
LAYER_1
 62
    39
  6
CONTINUOUS
 10
0.905996
 20
1.137496
  0
VERTEX
  8
LAYER_1
 62
    39
  6
CONTINUOUS
 10
0.900996
 20
1.136496
  0
VERTEX
  8
LAYER_1
 62
    39
  6
CONTINUOUS
 10
0.896996
 20
1.135496
  0
VERTEX
  8
LAYER_1
 62
    39
  6
CONTINUOUS
 10
0.891996
 20
1.133496
  0
VERTEX
  8
LAYER_1
 62
    39
  6
CONTINUOUS
 10
0.886996
 20
1.131496
  0
VERTEX
  8
LAYER_1
 62
    39
  6
CONTINUOUS
 10
0.882996
 20
1.128496
  0
VERTEX
  8
LAYER_1
 62
    39
  6
CONTINUOUS
 10
0.878996
 20
1.125496
  0
VERTEX
  8
LAYER_1
 62
    39
  6
CONTINUOUS
 10
0.875996
 20
1.121496
  0
VERTEX
  8
LAYER_1
 62
    39
  6
CONTINUOUS
 10
0.871996
 20
1.117496
  0
VERTEX
  8
LAYER_1
 62
    39
  6
CONTINUOUS
 10
0.868996
 20
1.113496
  0
VERTEX
  8
LAYER_1
 62
    39
  6
CONTINUOUS
 10
0.866996
 20
1.109496
  0
VERTEX
  8
LAYER_1
 62
    39
  6
CONTINUOUS
 10
0.864996
 20
1.104496
  0
VERTEX
  8
LAYER_1
 62
    39
  6
CONTINUOUS
 10
0.863996
 20
1.100496
  0
VERTEX
  8
LAYER_1
 62
    39
  6
CONTINUOUS
 10
0.862996
 20
1.095496
  0
VERTEX
  8
LAYER_1
 62
    39
  6
CONTINUOUS
 10
0.862996
 20
1.090496
  0
VERTEX
  8
LAYER_1
 62
    39
  6
CONTINUOUS
 10
0.862996
 20
1.085496
  0
VERTEX
  8
LAYER_1
 62
    39
  6
CONTINUOUS
 10
0.862996
 20
1.080496
  0
VERTEX
  8
LAYER_1
 62
    39
  6
CONTINUOUS
 10
0.863996
 20
1.075496
  0
VERTEX
  8
LAYER_1
 62
    39
  6
CONTINUOUS
 10
0.864996
 20
1.070496
  0
VERTEX
  8
LAYER_1
 62
    39
  6
CONTINUOUS
 10
0.866996
 20
1.066496
  0
VERTEX
  8
LAYER_1
 62
    39
  6
CONTINUOUS
 10
0.868996
 20
1.061496
  0
VERTEX
  8
LAYER_1
 62
    39
  6
CONTINUOUS
 10
0.871996
 20
1.057496
  0
VERTEX
  8
LAYER_1
 62
    39
  6
CONTINUOUS
 10
0.875996
 20
1.053496
  0
VERTEX
  8
LAYER_1
 62
    39
  6
CONTINUOUS
 10
0.878996
 20
1.050496
  0
VERTEX
  8
LAYER_1
 62
    39
  6
CONTINUOUS
 10
0.882996
 20
1.047496
  0
VERTEX
  8
LAYER_1
 62
    39
  6
CONTINUOUS
 10
0.886996
 20
1.044496
  0
VERTEX
  8
LAYER_1
 62
    39
  6
CONTINUOUS
 10
0.891996
 20
1.041496
  0
VERTEX
  8
LAYER_1
 62
    39
  6
CONTINUOUS
 10
0.896996
 20
1.040496
  0
VERTEX
  8
LAYER_1
 62
    39
  6
CONTINUOUS
 10
0.900996
 20
1.038496
  0
VERTEX
  8
LAYER_1
 62
    39
  6
CONTINUOUS
 10
0.905996
 20
1.038496
  0
VERTEX
  8
LAYER_1
 62
    39
  6
CONTINUOUS
 10
0.911996
 20
1.038496
  0
VERTEX
  8
LAYER_1
 62
    39
  6
CONTINUOUS
 10
0.916996
 20
1.038496
  0
VERTEX
  8
LAYER_1
 62
    39
  6
CONTINUOUS
 10
0.921996
 20
1.038496
  0
VERTEX
  8
LAYER_1
 62
    39
  6
CONTINUOUS
 10
0.925996
 20
1.039496
  0
VERTEX
  8
LAYER_1
 62
    39
  6
CONTINUOUS
 10
0.929996
 20
1.041496
  0
VERTEX
  8
LAYER_1
 62
    39
  6
CONTINUOUS
 10
0.934996
 20
1.043496
  0
VERTEX
  8
LAYER_1
 62
    39
  6
CONTINUOUS
 10
0.938996
 20
1.045496
  0
VERTEX
  8
LAYER_1
 62
    39
  6
CONTINUOUS
 10
0.942996
 20
1.048496
  0
VERTEX
  8
LAYER_1
 62
    39
  6
CONTINUOUS
 10
0.946996
 20
1.051496
  0
VERTEX
  8
LAYER_1
 62
    39
  6
CONTINUOUS
 10
0.950996
 20
1.055496
  0
VERTEX
  8
LAYER_1
 62
    39
  6
CONTINUOUS
 10
0.953996
 20
1.059496
  0
VERTEX
  8
LAYER_1
 62
    39
  6
CONTINUOUS
 10
0.955996
 20
1.064496
  0
VERTEX
  8
LAYER_1
 62
    39
  6
CONTINUOUS
 10
0.958996
 20
1.068496
  0
VERTEX
  8
LAYER_1
 62
    39
  6
CONTINUOUS
 10
0.959996
 20
1.073496
  0
VERTEX
  8
LAYER_1
 62
    39
  6
CONTINUOUS
 10
0.961996
 20
1.078496
  0
VERTEX
  8
LAYER_1
 62
    39
  6
CONTINUOUS
 10
0.961996
 20
1.083496
  0
SEQEND
  8
0
  0
POLYLINE
  8
LAYER_1
 62
    39
  6
CONTINUOUS
 66
     1
 40
0.004390
 41
0.004390
  0
VERTEX
  8
LAYER_1
 62
    39
  6
CONTINUOUS
 10
0.962996
 20
1.067496
  0
VERTEX
  8
LAYER_1
 62
    39
  6
CONTINUOUS
 10
0.962996
 20
1.028496
  0
VERTEX
  8
LAYER_1
 62
    39
  6
CONTINUOUS
 10
0.962996
 20
1.067496
  0
VERTEX
  8
LAYER_1
 62
    39
  6
CONTINUOUS
 10
0.962996
 20
1.047496
  0
VERTEX
  8
LAYER_1
 62
    39
  6
CONTINUOUS
 10
1.022996
 20
1.047496
  0
SEQEND
  8
0
  0
POLYLINE
  8
LAYER_1
 62
    39
  6
CONTINUOUS
 66
     1
 40
0.004390
 41
0.004390
  0
VERTEX
  8
LAYER_1
 62
    39
  6
CONTINUOUS
 10
0.972996
 20
1.088496
  0
VERTEX
  8
LAYER_1
 62
    39
  6
CONTINUOUS
 10
0.962996
 20
1.098496
  0
VERTEX
  8
LAYER_1
 62
    39
  6
CONTINUOUS
 10
1.022996
 20
1.098496
  0
VERTEX
  8
LAYER_1
 62
    39
  6
CONTINUOUS
 10
1.022996
 20
1.088496
  0
VERTEX
  8
LAYER_1
 62
    39
  6
CONTINUOUS
 10
1.022996
 20
1.107496
  0
SEQEND
  8
0
  0
POLYLINE
  8
LAYER_1
 62
    39
  6
CONTINUOUS
 66
     1
 40
0.004390
 41
0.004390
  0
VERTEX
  8
LAYER_1
 62
    39
  6
CONTINUOUS
 10
0.972996
 20
1.127496
  0
VERTEX
  8
LAYER_1
 62
    39
  6
CONTINUOUS
 10
0.962996
 20
1.138496
  0
VERTEX
  8
LAYER_1
 62
    39
  6
CONTINUOUS
 10
1.022996
 20
1.138496
  0
VERTEX
  8
LAYER_1
 62
    39
  6
CONTINUOUS
 10
1.022996
 20
1.127496
  0
VERTEX
  8
LAYER_1
 62
    39
  6
CONTINUOUS
 10
1.022996
 20
1.148496
  0
SEQEND
  8
0
  0
POLYLINE
  8
LAYER_1
 62
    39
  6
CONTINUOUS
 66
     1
 40
0.004390
 41
0.004390
  0
VERTEX
  8
LAYER_1
 62
    39
  6
CONTINUOUS
 10
0.641996
 20
1.182496
  0
VERTEX
  8
LAYER_1
 62
    39
  6
CONTINUOUS
 10
0.641996
 20
1.223496
  0
VERTEX
  8
LAYER_1
 62
    39
  6
CONTINUOUS
 10
0.641996
 20
1.203496
  0
VERTEX
  8
LAYER_1
 62
    39
  6
CONTINUOUS
 10
0.701996
 20
1.203496
  0
SEQEND
  8
0
  0
POLYLINE
  8
LAYER_1
 62
    39
  6
CONTINUOUS
 66
     1
 40
0.004390
 41
0.004390
  0
VERTEX
  8
LAYER_1
 62
    39
  6
CONTINUOUS
 10
0.652996
 20
1.242496
  0
VERTEX
  8
LAYER_1
 62
    39
  6
CONTINUOUS
 10
0.641996
 20
1.252496
  0
VERTEX
  8
LAYER_1
 62
    39
  6
CONTINUOUS
 10
0.701996
 20
1.252496
  0
VERTEX
  8
LAYER_1
 62
    39
  6
CONTINUOUS
 10
0.701996
 20
1.242496
  0
VERTEX
  8
LAYER_1
 62
    39
  6
CONTINUOUS
 10
0.701996
 20
1.263496
  0
SEQEND
  8
0
  0
POLYLINE
  8
LAYER_1
 62
    39
  6
CONTINUOUS
 66
     1
 40
0.004390
 41
0.004390
  0
VERTEX
  8
LAYER_1
 62
    39
  6
CONTINUOUS
 10
0.652996
 20
1.283496
  0
VERTEX
  8
LAYER_1
 62
    39
  6
CONTINUOUS
 10
0.641996
 20
1.292496
  0
VERTEX
  8
LAYER_1
 62
    39
  6
CONTINUOUS
 10
0.641996
 20
1.312496
  0
VERTEX
  8
LAYER_1
 62
    39
  6
CONTINUOUS
 10
0.652996
 20
1.323496
  0
VERTEX
  8
LAYER_1
 62
    39
  6
CONTINUOUS
 10
0.662996
 20
1.323496
  0
VERTEX
  8
LAYER_1
 62
    39
  6
CONTINUOUS
 10
0.672996
 20
1.312496
  0
VERTEX
  8
LAYER_1
 62
    39
  6
CONTINUOUS
 10
0.672996
 20
1.302496
  0
VERTEX
  8
LAYER_1
 62
    39
  6
CONTINUOUS
 10
0.672996
 20
1.312496
  0
VERTEX
  8
LAYER_1
 62
    39
  6
CONTINUOUS
 10
0.681996
 20
1.323496
  0
VERTEX
  8
LAYER_1
 62
    39
  6
CONTINUOUS
 10
0.691996
 20
1.323496
  0
VERTEX
  8
LAYER_1
 62
    39
  6
CONTINUOUS
 10
0.701996
 20
1.312496
  0
VERTEX
  8
LAYER_1
 62
    39
  6
CONTINUOUS
 10
0.701996
 20
1.292496
  0
VERTEX
  8
LAYER_1
 62
    39
  6
CONTINUOUS
 10
0.691996
 20
1.283496
  0
SEQEND
  8
0
  0
POLYLINE
  8
LAYER_1
 62
    39
  6
CONTINUOUS
 66
     1
 40
0.004390
 41
0.004390
 70
     1
  0
VERTEX
  8
LAYER_1
 62
    39
  6
CONTINUOUS
 10
0.712996
 20
1.088496
  0
VERTEX
  8
LAYER_1
 62
    39
  6
CONTINUOUS
 10
0.711996
 20
1.093496
  0
VERTEX
  8
LAYER_1
 62
    39
  6
CONTINUOUS
 10
0.711996
 20
1.098496
  0
VERTEX
  8
LAYER_1
 62
    39
  6
CONTINUOUS
 10
0.709996
 20
1.102496
  0
VERTEX
  8
LAYER_1
 62
    39
  6
CONTINUOUS
 10
0.708996
 20
1.107496
  0
VERTEX
  8
LAYER_1
 62
    39
  6
CONTINUOUS
 10
0.705996
 20
1.111496
  0
VERTEX
  8
LAYER_1
 62
    39
  6
CONTINUOUS
 10
0.703996
 20
1.115496
  0
VERTEX
  8
LAYER_1
 62
    39
  6
CONTINUOUS
 10
0.700996
 20
1.119496
  0
VERTEX
  8
LAYER_1
 62
    39
  6
CONTINUOUS
 10
0.696996
 20
1.123496
  0
VERTEX
  8
LAYER_1
 62
    39
  6
CONTINUOUS
 10
0.692996
 20
1.127496
  0
VERTEX
  8
LAYER_1
 62
    39
  6
CONTINUOUS
 10
0.688996
 20
1.129496
  0
VERTEX
  8
LAYER_1
 62
    39
  6
CONTINUOUS
 10
0.684996
 20
1.132496
  0
VERTEX
  8
LAYER_1
 62
    39
  6
CONTINUOUS
 10
0.679996
 20
1.134496
  0
VERTEX
  8
LAYER_1
 62
    39
  6
CONTINUOUS
 10
0.675996
 20
1.136496
  0
VERTEX
  8
LAYER_1
 62
    39
  6
CONTINUOUS
 10
0.671996
 20
1.137496
  0
VERTEX
  8
LAYER_1
 62
    39
  6
CONTINUOUS
 10
0.666996
 20
1.137496
  0
VERTEX
  8
LAYER_1
 62
    39
  6
CONTINUOUS
 10
0.661996
 20
1.138496
  0
VERTEX
  8
LAYER_1
 62
    39
  6
CONTINUOUS
 10
0.655996
 20
1.137496
  0
VERTEX
  8
LAYER_1
 62
    39
  6
CONTINUOUS
 10
0.650996
 20
1.136496
  0
VERTEX
  8
LAYER_1
 62
    39
  6
CONTINUOUS
 10
0.646996
 20
1.135496
  0
VERTEX
  8
LAYER_1
 62
    39
  6
CONTINUOUS
 10
0.641996
 20
1.133496
  0
VERTEX
  8
LAYER_1
 62
    39
  6
CONTINUOUS
 10
0.636996
 20
1.131496
  0
VERTEX
  8
LAYER_1
 62
    39
  6
CONTINUOUS
 10
0.632996
 20
1.128496
  0
VERTEX
  8
LAYER_1
 62
    39
  6
CONTINUOUS
 10
0.628996
 20
1.125496
  0
VERTEX
  8
LAYER_1
 62
    39
  6
CONTINUOUS
 10
0.625996
 20
1.121496
  0
VERTEX
  8
LAYER_1
 62
    39
  6
CONTINUOUS
 10
0.621996
 20
1.117496
  0
VERTEX
  8
LAYER_1
 62
    39
  6
CONTINUOUS
 10
0.618996
 20
1.113496
  0
VERTEX
  8
LAYER_1
 62
    39
  6
CONTINUOUS
 10
0.616996
 20
1.109496
  0
VERTEX
  8
LAYER_1
 62
    39
  6
CONTINUOUS
 10
0.614996
 20
1.104496
  0
VERTEX
  8
LAYER_1
 62
    39
  6
CONTINUOUS
 10
0.613996
 20
1.100496
  0
VERTEX
  8
LAYER_1
 62
    39
  6
CONTINUOUS
 10
0.612996
 20
1.095496
  0
VERTEX
  8
LAYER_1
 62
    39
  6
CONTINUOUS
 10
0.612996
 20
1.090496
  0
VERTEX
  8
LAYER_1
 62
    39
  6
CONTINUOUS
 10
0.612996
 20
1.085496
  0
VERTEX
  8
LAYER_1
 62
    39
  6
CONTINUOUS
 10
0.612996
 20
1.080496
  0
VERTEX
  8
LAYER_1
 62
    39
  6
CONTINUOUS
 10
0.613996
 20
1.075496
  0
VERTEX
  8
LAYER_1
 62
    39
  6
CONTINUOUS
 10
0.614996
 20
1.070496
  0
VERTEX
  8
LAYER_1
 62
    39
  6
CONTINUOUS
 10
0.616996
 20
1.066496
  0
VERTEX
  8
LAYER_1
 62
    39
  6
CONTINUOUS
 10
0.618996
 20
1.061496
  0
VERTEX
  8
LAYER_1
 62
    39
  6
CONTINUOUS
 10
0.621996
 20
1.057496
  0
VERTEX
  8
LAYER_1
 62
    39
  6
CONTINUOUS
 10
0.625996
 20
1.053496
  0
VERTEX
  8
LAYER_1
 62
    39
  6
CONTINUOUS
 10
0.628996
 20
1.050496
  0
VERTEX
  8
LAYER_1
 62
    39
  6
CONTINUOUS
 10
0.632996
 20
1.047496
  0
VERTEX
  8
LAYER_1
 62
    39
  6
CONTINUOUS
 10
0.636996
 20
1.044496
  0
VERTEX
  8
LAYER_1
 62
    39
  6
CONTINUOUS
 10
0.641996
 20
1.041496
  0
VERTEX
  8
LAYER_1
 62
    39
  6
CONTINUOUS
 10
0.646996
 20
1.040496
  0
VERTEX
  8
LAYER_1
 62
    39
  6
CONTINUOUS
 10
0.650996
 20
1.038496
  0
VERTEX
  8
LAYER_1
 62
    39
  6
CONTINUOUS
 10
0.655996
 20
1.038496
  0
VERTEX
  8
LAYER_1
 62
    39
  6
CONTINUOUS
 10
0.661996
 20
1.038496
  0
VERTEX
  8
LAYER_1
 62
    39
  6
CONTINUOUS
 10
0.666996
 20
1.038496
  0
VERTEX
  8
LAYER_1
 62
    39
  6
CONTINUOUS
 10
0.671996
 20
1.038496
  0
VERTEX
  8
LAYER_1
 62
    39
  6
CONTINUOUS
 10
0.675996
 20
1.039496
  0
VERTEX
  8
LAYER_1
 62
    39
  6
CONTINUOUS
 10
0.679996
 20
1.041496
  0
VERTEX
  8
LAYER_1
 62
    39
  6
CONTINUOUS
 10
0.684996
 20
1.043496
  0
VERTEX
  8
LAYER_1
 62
    39
  6
CONTINUOUS
 10
0.688996
 20
1.045496
  0
VERTEX
  8
LAYER_1
 62
    39
  6
CONTINUOUS
 10
0.692996
 20
1.048496
  0
VERTEX
  8
LAYER_1
 62
    39
  6
CONTINUOUS
 10
0.696996
 20
1.051496
  0
VERTEX
  8
LAYER_1
 62
    39
  6
CONTINUOUS
 10
0.700996
 20
1.055496
  0
VERTEX
  8
LAYER_1
 62
    39
  6
CONTINUOUS
 10
0.703996
 20
1.059496
  0
VERTEX
  8
LAYER_1
 62
    39
  6
CONTINUOUS
 10
0.705996
 20
1.064496
  0
VERTEX
  8
LAYER_1
 62
    39
  6
CONTINUOUS
 10
0.708996
 20
1.068496
  0
VERTEX
  8
LAYER_1
 62
    39
  6
CONTINUOUS
 10
0.709996
 20
1.073496
  0
VERTEX
  8
LAYER_1
 62
    39
  6
CONTINUOUS
 10
0.711996
 20
1.078496
  0
VERTEX
  8
LAYER_1
 62
    39
  6
CONTINUOUS
 10
0.711996
 20
1.083496
  0
SEQEND
  8
0
  0
POLYLINE
  8
LAYER_1
 62
    39
  6
CONTINUOUS
 66
     1
 40
0.004390
 41
0.004390
  0
VERTEX
  8
LAYER_1
 62
    39
  6
CONTINUOUS
 10
0.811996
 20
0.937496
  0
VERTEX
  8
LAYER_1
 62
    39
  6
CONTINUOUS
 10
0.811996
 20
0.942496
  0
VERTEX
  8
LAYER_1
 62
    39
  6
CONTINUOUS
 10
0.810996
 20
0.947496
  0
VERTEX
  8
LAYER_1
 62
    39
  6
CONTINUOUS
 10
0.809996
 20
0.952496
  0
VERTEX
  8
LAYER_1
 62
    39
  6
CONTINUOUS
 10
0.807996
 20
0.957496
  0
VERTEX
  8
LAYER_1
 62
    39
  6
CONTINUOUS
 10
0.805996
 20
0.961496
  0
VERTEX
  8
LAYER_1
 62
    39
  6
CONTINUOUS
 10
0.803996
 20
0.966496
  0
VERTEX
  8
LAYER_1
 62
    39
  6
CONTINUOUS
 10
0.800996
 20
0.970496
  0
VERTEX
  8
LAYER_1
 62
    39
  6
CONTINUOUS
 10
0.797996
 20
0.973496
  0
VERTEX
  8
LAYER_1
 62
    39
  6
CONTINUOUS
 10
0.794996
 20
0.976496
  0
VERTEX
  8
LAYER_1
 62
    39
  6
CONTINUOUS
 10
0.790996
 20
0.979496
  0
VERTEX
  8
LAYER_1
 62
    39
  6
CONTINUOUS
 10
0.785996
 20
0.981496
  0
VERTEX
  8
LAYER_1
 62
    39
  6
CONTINUOUS
 10
0.781996
 20
0.983496
  0
VERTEX
  8
LAYER_1
 62
    39
  6
CONTINUOUS
 10
0.776996
 20
0.985496
  0
VERTEX
  8
LAYER_1
 62
    39
  6
CONTINUOUS
 10
0.771996
 20
0.986496
  0
VERTEX
  8
LAYER_1
 62
    39
  6
CONTINUOUS
 10
0.766996
 20
0.987496
  0
VERTEX
  8
LAYER_1
 62
    39
  6
CONTINUOUS
 10
0.761996
 20
0.987496
  0
SEQEND
  8
0
  0
POLYLINE
  8
LAYER_1
 62
    39
  6
CONTINUOUS
 66
     1
 40
0.004390
 41
0.004390
  0
VERTEX
  8
LAYER_1
 62
    39
  6
CONTINUOUS
 10
0.761996
 20
0.888496
  0
VERTEX
  8
LAYER_1
 62
    39
  6
CONTINUOUS
 10
0.766996
 20
0.888496
  0
VERTEX
  8
LAYER_1
 62
    39
  6
CONTINUOUS
 10
0.771996
 20
0.889496
  0
VERTEX
  8
LAYER_1
 62
    39
  6
CONTINUOUS
 10
0.776996
 20
0.890496
  0
VERTEX
  8
LAYER_1
 62
    39
  6
CONTINUOUS
 10
0.781996
 20
0.891496
  0
VERTEX
  8
LAYER_1
 62
    39
  6
CONTINUOUS
 10
0.785996
 20
0.894496
  0
VERTEX
  8
LAYER_1
 62
    39
  6
CONTINUOUS
 10
0.790996
 20
0.896496
  0
VERTEX
  8
LAYER_1
 62
    39
  6
CONTINUOUS
 10
0.794996
 20
0.899496
  0
VERTEX
  8
LAYER_1
 62
    39
  6
CONTINUOUS
 10
0.797996
 20
0.902496
  0
VERTEX
  8
LAYER_1
 62
    39
  6
CONTINUOUS
 10
0.800996
 20
0.906496
  0
VERTEX
  8
LAYER_1
 62
    39
  6
CONTINUOUS
 10
0.803996
 20
0.910496
  0
VERTEX
  8
LAYER_1
 62
    39
  6
CONTINUOUS
 10
0.805996
 20
0.913496
  0
VERTEX
  8
LAYER_1
 62
    39
  6
CONTINUOUS
 10
0.807996
 20
0.918496
  0
VERTEX
  8
LAYER_1
 62
    39
  6
CONTINUOUS
 10
0.809996
 20
0.923496
  0
VERTEX
  8
LAYER_1
 62
    39
  6
CONTINUOUS
 10
0.810996
 20
0.927496
  0
VERTEX
  8
LAYER_1
 62
    39
  6
CONTINUOUS
 10
0.811996
 20
0.932496
  0
VERTEX
  8
LAYER_1
 62
    39
  6
CONTINUOUS
 10
0.811996
 20
0.937496
  0
SEQEND
  8
0
  0
POLYLINE
  8
LAYER_1
 62
    39
  6
CONTINUOUS
 66
     1
 40
0.004390
 41
0.004390
  0
VERTEX
  8
LAYER_1
 62
    39
  6
CONTINUOUS
 10
0.667996
 20
0.908496
  0
VERTEX
  8
LAYER_1
 62
    39
  6
CONTINUOUS
 10
0.667996
 20
0.968496
  0
VERTEX
  8
LAYER_1
 62
    39
  6
CONTINUOUS
 10
0.696996
 20
0.968496
  0
VERTEX
  8
LAYER_1
 62
    39
  6
CONTINUOUS
 10
0.707996
 20
0.958496
  0
VERTEX
  8
LAYER_1
 62
    39
  6
CONTINUOUS
 10
0.707996
 20
0.948496
  0
VERTEX
  8
LAYER_1
 62
    39
  6
CONTINUOUS
 10
0.696996
 20
0.937496
  0
VERTEX
  8
LAYER_1
 62
    39
  6
CONTINUOUS
 10
0.667996
 20
0.937496
  0
VERTEX
  8
LAYER_1
 62
    39
  6
CONTINUOUS
 10
0.676996
 20
0.937496
  0
VERTEX
  8
LAYER_1
 62
    39
  6
CONTINUOUS
 10
0.707996
 20
0.908496
  0
SEQEND
  8
0
  0
POLYLINE
  8
LAYER_1
 62
    39
  6
CONTINUOUS
 66
     1
 40
0.004390
 41
0.004390
  0
VERTEX
  8
LAYER_1
 62
    39
  6
CONTINUOUS
 10
0.737996
 20
0.968496
  0
VERTEX
  8
LAYER_1
 62
    39
  6
CONTINUOUS
 10
0.727996
 20
0.958496
  0
VERTEX
  8
LAYER_1
 62
    39
  6
CONTINUOUS
 10
0.737996
 20
0.968496
  0
VERTEX
  8
LAYER_1
 62
    39
  6
CONTINUOUS
 10
0.756996
 20
0.968496
  0
VERTEX
  8
LAYER_1
 62
    39
  6
CONTINUOUS
 10
0.766996
 20
0.958496
  0
VERTEX
  8
LAYER_1
 62
    39
  6
CONTINUOUS
 10
0.766996
 20
0.948496
  0
VERTEX
  8
LAYER_1
 62
    39
  6
CONTINUOUS
 10
0.756996
 20
0.937496
  0
VERTEX
  8
LAYER_1
 62
    39
  6
CONTINUOUS
 10
0.737996
 20
0.937496
  0
VERTEX
  8
LAYER_1
 62
    39
  6
CONTINUOUS
 10
0.727996
 20
0.927496
  0
VERTEX
  8
LAYER_1
 62
    39
  6
CONTINUOUS
 10
0.727996
 20
0.908496
  0
VERTEX
  8
LAYER_1
 62
    39
  6
CONTINUOUS
 10
0.766996
 20
0.908496
  0
SEQEND
  8
0
  0
POLYLINE
  8
LAYER_1
 62
    39
  6
CONTINUOUS
 66
     1
 40
0.004390
 41
0.004390
  0
VERTEX
  8
LAYER_1
 62
    39
  6
CONTINUOUS
 10
0.811996
 20
0.764496
  0
VERTEX
  8
LAYER_1
 62
    39
  6
CONTINUOUS
 10
0.862996
 20
0.764496
  0
VERTEX
  8
LAYER_1
 62
    39
  6
CONTINUOUS
 10
0.862996
 20
0.762496
  0
VERTEX
  8
LAYER_1
 62
    39
  6
CONTINUOUS
 10
0.811996
 20
0.762496
  0
VERTEX
  8
LAYER_1
 62
    39
  6
CONTINUOUS
 10
0.811996
 20
0.764496
  0
VERTEX
  8
LAYER_1
 62
    39
  6
CONTINUOUS
 10
0.811996
 20
0.763496
  0
VERTEX
  8
LAYER_1
 62
    39
  6
CONTINUOUS
 10
0.862996
 20
0.763496
  0
VERTEX
  8
LAYER_1
 62
    39
  6
CONTINUOUS
 10
0.862996
 20
0.463496
  0
VERTEX
  8
LAYER_1
 62
    39
  6
CONTINUOUS
 10
0.861996
 20
0.463496
  0
VERTEX
  8
LAYER_1
 62
    39
  6
CONTINUOUS
 10
0.861996
 20
0.763496
  0
VERTEX
  8
LAYER_1
 62
    39
  6
CONTINUOUS
 10
0.862996
 20
0.763496
  0
VERTEX
  8
LAYER_1
 62
    39
  6
CONTINUOUS
 10
0.862996
 20
0.463496
  0
VERTEX
  8
LAYER_1
 62
    39
  6
CONTINUOUS
 10
0.862996
 20
0.462496
  0
VERTEX
  8
LAYER_1
 62
    39
  6
CONTINUOUS
 10
0.811996
 20
0.462496
  0
VERTEX
  8
LAYER_1
 62
    39
  6
CONTINUOUS
 10
0.811996
 20
0.464496
  0
VERTEX
  8
LAYER_1
 62
    39
  6
CONTINUOUS
 10
0.862996
 20
0.464496
  0
VERTEX
  8
LAYER_1
 62
    39
  6
CONTINUOUS
 10
0.862996
 20
0.462496
  0
VERTEX
  8
LAYER_1
 62
    39
  6
CONTINUOUS
 10
0.862996
 20
0.463496
  0
VERTEX
  8
LAYER_1
 62
    39
  6
CONTINUOUS
 10
0.811996
 20
0.463496
  0
SEQEND
  8
0
  0
POLYLINE
  8
LAYER_1
 62
    39
  6
CONTINUOUS
 66
     1
 40
0.004390
 41
0.004390
 70
     1
  0
VERTEX
  8
LAYER_1
 62
    39
  6
CONTINUOUS
 10
0.962996
 20
0.812496
  0
VERTEX
  8
LAYER_1
 62
    39
  6
CONTINUOUS
 10
0.961996
 20
0.817496
  0
VERTEX
  8
LAYER_1
 62
    39
  6
CONTINUOUS
 10
0.961996
 20
0.822496
  0
VERTEX
  8
LAYER_1
 62
    39
  6
CONTINUOUS
 10
0.959996
 20
0.827496
  0
VERTEX
  8
LAYER_1
 62
    39
  6
CONTINUOUS
 10
0.958996
 20
0.832496
  0
VERTEX
  8
LAYER_1
 62
    39
  6
CONTINUOUS
 10
0.955996
 20
0.837496
  0
VERTEX
  8
LAYER_1
 62
    39
  6
CONTINUOUS
 10
0.953996
 20
0.841496
  0
VERTEX
  8
LAYER_1
 62
    39
  6
CONTINUOUS
 10
0.950996
 20
0.845496
  0
VERTEX
  8
LAYER_1
 62
    39
  6
CONTINUOUS
 10
0.946996
 20
0.849496
  0
VERTEX
  8
LAYER_1
 62
    39
  6
CONTINUOUS
 10
0.942996
 20
0.851496
  0
VERTEX
  8
LAYER_1
 62
    39
  6
CONTINUOUS
 10
0.938996
 20
0.854496
  0
VERTEX
  8
LAYER_1
 62
    39
  6
CONTINUOUS
 10
0.934996
 20
0.857496
  0
VERTEX
  8
LAYER_1
 62
    39
  6
CONTINUOUS
 10
0.929996
 20
0.859496
  0
VERTEX
  8
LAYER_1
 62
    39
  6
CONTINUOUS
 10
0.925996
 20
0.860496
  0
VERTEX
  8
LAYER_1
 62
    39
  6
CONTINUOUS
 10
0.921996
 20
0.861496
  0
VERTEX
  8
LAYER_1
 62
    39
  6
CONTINUOUS
 10
0.916996
 20
0.862496
  0
VERTEX
  8
LAYER_1
 62
    39
  6
CONTINUOUS
 10
0.911996
 20
0.862496
  0
VERTEX
  8
LAYER_1
 62
    39
  6
CONTINUOUS
 10
0.905996
 20
0.862496
  0
VERTEX
  8
LAYER_1
 62
    39
  6
CONTINUOUS
 10
0.900996
 20
0.861496
  0
VERTEX
  8
LAYER_1
 62
    39
  6
CONTINUOUS
 10
0.896996
 20
0.860496
  0
VERTEX
  8
LAYER_1
 62
    39
  6
CONTINUOUS
 10
0.891996
 20
0.858496
  0
VERTEX
  8
LAYER_1
 62
    39
  6
CONTINUOUS
 10
0.886996
 20
0.855496
  0
VERTEX
  8
LAYER_1
 62
    39
  6
CONTINUOUS
 10
0.882996
 20
0.853496
  0
VERTEX
  8
LAYER_1
 62
    39
  6
CONTINUOUS
 10
0.878996
 20
0.850496
  0
VERTEX
  8
LAYER_1
 62
    39
  6
CONTINUOUS
 10
0.875996
 20
0.847496
  0
VERTEX
  8
LAYER_1
 62
    39
  6
CONTINUOUS
 10
0.871996
 20
0.843496
  0
VERTEX
  8
LAYER_1
 62
    39
  6
CONTINUOUS
 10
0.868996
 20
0.839496
  0
VERTEX
  8
LAYER_1
 62
    39
  6
CONTINUOUS
 10
0.866996
 20
0.834496
  0
VERTEX
  8
LAYER_1
 62
    39
  6
CONTINUOUS
 10
0.864996
 20
0.830496
  0
VERTEX
  8
LAYER_1
 62
    39
  6
CONTINUOUS
 10
0.863996
 20
0.825496
  0
VERTEX
  8
LAYER_1
 62
    39
  6
CONTINUOUS
 10
0.862996
 20
0.820496
  0
VERTEX
  8
LAYER_1
 62
    39
  6
CONTINUOUS
 10
0.862996
 20
0.815496
  0
VERTEX
  8
LAYER_1
 62
    39
  6
CONTINUOUS
 10
0.862996
 20
0.810496
  0
VERTEX
  8
LAYER_1
 62
    39
  6
CONTINUOUS
 10
0.862996
 20
0.805496
  0
VERTEX
  8
LAYER_1
 62
    39
  6
CONTINUOUS
 10
0.863996
 20
0.800496
  0
VERTEX
  8
LAYER_1
 62
    39
  6
CONTINUOUS
 10
0.864996
 20
0.795496
  0
VERTEX
  8
LAYER_1
 62
    39
  6
CONTINUOUS
 10
0.866996
 20
0.790496
  0
VERTEX
  8
LAYER_1
 62
    39
  6
CONTINUOUS
 10
0.868996
 20
0.787496
  0
VERTEX
  8
LAYER_1
 62
    39
  6
CONTINUOUS
 10
0.871996
 20
0.783496
  0
VERTEX
  8
LAYER_1
 62
    39
  6
CONTINUOUS
 10
0.875996
 20
0.779496
  0
VERTEX
  8
LAYER_1
 62
    39
  6
CONTINUOUS
 10
0.878996
 20
0.775496
  0
VERTEX
  8
LAYER_1
 62
    39
  6
CONTINUOUS
 10
0.882996
 20
0.772496
  0
VERTEX
  8
LAYER_1
 62
    39
  6
CONTINUOUS
 10
0.886996
 20
0.769496
  0
VERTEX
  8
LAYER_1
 62
    39
  6
CONTINUOUS
 10
0.891996
 20
0.767496
  0
VERTEX
  8
LAYER_1
 62
    39
  6
CONTINUOUS
 10
0.896996
 20
0.765496
  0
VERTEX
  8
LAYER_1
 62
    39
  6
CONTINUOUS
 10
0.900996
 20
0.764496
  0
VERTEX
  8
LAYER_1
 62
    39
  6
CONTINUOUS
 10
0.905996
 20
0.763496
  0
VERTEX
  8
LAYER_1
 62
    39
  6
CONTINUOUS
 10
0.911996
 20
0.763496
  0
VERTEX
  8
LAYER_1
 62
    39
  6
CONTINUOUS
 10
0.916996
 20
0.763496
  0
VERTEX
  8
LAYER_1
 62
    39
  6
CONTINUOUS
 10
0.921996
 20
0.763496
  0
VERTEX
  8
LAYER_1
 62
    39
  6
CONTINUOUS
 10
0.925996
 20
0.764496
  0
VERTEX
  8
LAYER_1
 62
    39
  6
CONTINUOUS
 10
0.929996
 20
0.766496
  0
VERTEX
  8
LAYER_1
 62
    39
  6
CONTINUOUS
 10
0.934996
 20
0.768496
  0
VERTEX
  8
LAYER_1
 62
    39
  6
CONTINUOUS
 10
0.938996
 20
0.771496
  0
VERTEX
  8
LAYER_1
 62
    39
  6
CONTINUOUS
 10
0.942996
 20
0.774496
  0
VERTEX
  8
LAYER_1
 62
    39
  6
CONTINUOUS
 10
0.946996
 20
0.777496
  0
VERTEX
  8
LAYER_1
 62
    39
  6
CONTINUOUS
 10
0.950996
 20
0.781496
  0
VERTEX
  8
LAYER_1
 62
    39
  6
CONTINUOUS
 10
0.953996
 20
0.785496
  0
VERTEX
  8
LAYER_1
 62
    39
  6
CONTINUOUS
 10
0.955996
 20
0.788496
  0
VERTEX
  8
LAYER_1
 62
    39
  6
CONTINUOUS
 10
0.958996
 20
0.793496
  0
VERTEX
  8
LAYER_1
 62
    39
  6
CONTINUOUS
 10
0.959996
 20
0.797496
  0
VERTEX
  8
LAYER_1
 62
    39
  6
CONTINUOUS
 10
0.961996
 20
0.802496
  0
VERTEX
  8
LAYER_1
 62
    39
  6
CONTINUOUS
 10
0.961996
 20
0.807496
  0
SEQEND
  8
0
  0
POLYLINE
  8
LAYER_1
 62
    39
  6
CONTINUOUS
 66
     1
 40
0.004390
 41
0.004390
  0
VERTEX
  8
LAYER_1
 62
    39
  6
CONTINUOUS
 10
0.962996
 20
0.807496
  0
VERTEX
  8
LAYER_1
 62
    39
  6
CONTINUOUS
 10
0.962996
 20
0.768496
  0
VERTEX
  8
LAYER_1
 62
    39
  6
CONTINUOUS
 10
0.962996
 20
0.807496
  0
VERTEX
  8
LAYER_1
 62
    39
  6
CONTINUOUS
 10
0.962996
 20
0.788496
  0
VERTEX
  8
LAYER_1
 62
    39
  6
CONTINUOUS
 10
1.022996
 20
0.788496
  0
SEQEND
  8
0
  0
POLYLINE
  8
LAYER_1
 62
    39
  6
CONTINUOUS
 66
     1
 40
0.004390
 41
0.004390
  0
VERTEX
  8
LAYER_1
 62
    39
  6
CONTINUOUS
 10
0.972996
 20
0.828496
  0
VERTEX
  8
LAYER_1
 62
    39
  6
CONTINUOUS
 10
0.962996
 20
0.838496
  0
VERTEX
  8
LAYER_1
 62
    39
  6
CONTINUOUS
 10
1.022996
 20
0.838496
  0
VERTEX
  8
LAYER_1
 62
    39
  6
CONTINUOUS
 10
1.022996
 20
0.828496
  0
VERTEX
  8
LAYER_1
 62
    39
  6
CONTINUOUS
 10
1.022996
 20
0.848496
  0
SEQEND
  8
0
  0
POLYLINE
  8
LAYER_1
 62
    39
  6
CONTINUOUS
 66
     1
 40
0.004390
 41
0.004390
  0
VERTEX
  8
LAYER_1
 62
    39
  6
CONTINUOUS
 10
1.011996
 20
0.867496
  0
VERTEX
  8
LAYER_1
 62
    39
  6
CONTINUOUS
 10
1.022996
 20
0.877496
  0
VERTEX
  8
LAYER_1
 62
    39
  6
CONTINUOUS
 10
1.011996
 20
0.867496
  0
VERTEX
  8
LAYER_1
 62
    39
  6
CONTINUOUS
 10
0.972996
 20
0.867496
  0
VERTEX
  8
LAYER_1
 62
    39
  6
CONTINUOUS
 10
0.962996
 20
0.877496
  0
VERTEX
  8
LAYER_1
 62
    39
  6
CONTINUOUS
 10
0.962996
 20
0.888496
  0
VERTEX
  8
LAYER_1
 62
    39
  6
CONTINUOUS
 10
0.972996
 20
0.898496
  0
VERTEX
  8
LAYER_1
 62
    39
  6
CONTINUOUS
 10
1.011996
 20
0.898496
  0
VERTEX
  8
LAYER_1
 62
    39
  6
CONTINUOUS
 10
1.022996
 20
0.888496
  0
VERTEX
  8
LAYER_1
 62
    39
  6
CONTINUOUS
 10
1.022996
 20
0.877496
  0
SEQEND
  8
0
  0
POLYLINE
  8
LAYER_1
 62
    39
  6
CONTINUOUS
 66
     1
 40
0.004390
 41
0.004390
  0
VERTEX
  8
LAYER_1
 62
    39
  6
CONTINUOUS
 10
0.612996
 20
0.913496
  0
VERTEX
  8
LAYER_1
 62
    39
  6
CONTINUOUS
 10
0.612996
 20
0.917496
  0
VERTEX
  8
LAYER_1
 62
    39
  6
CONTINUOUS
 10
0.611996
 20
0.922496
  0
VERTEX
  8
LAYER_1
 62
    39
  6
CONTINUOUS
 10
0.610996
 20
0.927496
  0
VERTEX
  8
LAYER_1
 62
    39
  6
CONTINUOUS
 10
0.608996
 20
0.931496
  0
VERTEX
  8
LAYER_1
 62
    39
  6
CONTINUOUS
 10
0.606996
 20
0.936496
  0
VERTEX
  8
LAYER_1
 62
    39
  6
CONTINUOUS
 10
0.603996
 20
0.940496
  0
VERTEX
  8
LAYER_1
 62
    39
  6
CONTINUOUS
 10
0.600996
 20
0.944496
  0
VERTEX
  8
LAYER_1
 62
    39
  6
CONTINUOUS
 10
0.597996
 20
0.948496
  0
VERTEX
  8
LAYER_1
 62
    39
  6
CONTINUOUS
 10
0.593996
 20
0.951496
  0
VERTEX
  8
LAYER_1
 62
    39
  6
CONTINUOUS
 10
0.589996
 20
0.954496
  0
VERTEX
  8
LAYER_1
 62
    39
  6
CONTINUOUS
 10
0.585996
 20
0.957496
  0
VERTEX
  8
LAYER_1
 62
    39
  6
CONTINUOUS
 10
0.581996
 20
0.959496
  0
VERTEX
  8
LAYER_1
 62
    39
  6
CONTINUOUS
 10
0.576996
 20
0.961496
  0
VERTEX
  8
LAYER_1
 62
    39
  6
CONTINUOUS
 10
0.571996
 20
0.962496
  0
VERTEX
  8
LAYER_1
 62
    39
  6
CONTINUOUS
 10
0.566996
 20
0.963496
  0
VERTEX
  8
LAYER_1
 62
    39
  6
CONTINUOUS
 10
0.561996
 20
0.963496
  0
SEQEND
  8
0
  0
POLYLINE
  8
LAYER_1
 62
    39
  6
CONTINUOUS
 66
     1
 40
0.004390
 41
0.004390
  0
VERTEX
  8
LAYER_1
 62
    39
  6
CONTINUOUS
 10
0.561996
 20
0.862496
  0
VERTEX
  8
LAYER_1
 62
    39
  6
CONTINUOUS
 10
0.566996
 20
0.862496
  0
VERTEX
  8
LAYER_1
 62
    39
  6
CONTINUOUS
 10
0.571996
 20
0.863496
  0
VERTEX
  8
LAYER_1
 62
    39
  6
CONTINUOUS
 10
0.576996
 20
0.864496
  0
VERTEX
  8
LAYER_1
 62
    39
  6
CONTINUOUS
 10
0.581996
 20
0.866496
  0
VERTEX
  8
LAYER_1
 62
    39
  6
CONTINUOUS
 10
0.585996
 20
0.868496
  0
VERTEX
  8
LAYER_1
 62
    39
  6
CONTINUOUS
 10
0.589996
 20
0.871496
  0
VERTEX
  8
LAYER_1
 62
    39
  6
CONTINUOUS
 10
0.593996
 20
0.874496
  0
VERTEX
  8
LAYER_1
 62
    39
  6
CONTINUOUS
 10
0.597996
 20
0.877496
  0
VERTEX
  8
LAYER_1
 62
    39
  6
CONTINUOUS
 10
0.600996
 20
0.881496
  0
VERTEX
  8
LAYER_1
 62
    39
  6
CONTINUOUS
 10
0.603996
 20
0.885496
  0
VERTEX
  8
LAYER_1
 62
    39
  6
CONTINUOUS
 10
0.606996
 20
0.889496
  0
VERTEX
  8
LAYER_1
 62
    39
  6
CONTINUOUS
 10
0.608996
 20
0.894496
  0
VERTEX
  8
LAYER_1
 62
    39
  6
CONTINUOUS
 10
0.610996
 20
0.898496
  0
VERTEX
  8
LAYER_1
 62
    39
  6
CONTINUOUS
 10
0.611996
 20
0.903496
  0
VERTEX
  8
LAYER_1
 62
    39
  6
CONTINUOUS
 10
0.612996
 20
0.908496
  0
VERTEX
  8
LAYER_1
 62
    39
  6
CONTINUOUS
 10
0.612996
 20
0.913496
  0
SEQEND
  8
0
  0
POLYLINE
  8
LAYER_1
 62
    39
  6
CONTINUOUS
 66
     1
 40
0.004390
 41
0.004390
  0
VERTEX
  8
LAYER_1
 62
    39
  6
CONTINUOUS
 10
0.462996
 20
0.883496
  0
VERTEX
  8
LAYER_1
 62
    39
  6
CONTINUOUS
 10
0.462996
 20
0.942496
  0
VERTEX
  8
LAYER_1
 62
    39
  6
CONTINUOUS
 10
0.491996
 20
0.942496
  0
VERTEX
  8
LAYER_1
 62
    39
  6
CONTINUOUS
 10
0.501996
 20
0.932496
  0
VERTEX
  8
LAYER_1
 62
    39
  6
CONTINUOUS
 10
0.501996
 20
0.922496
  0
VERTEX
  8
LAYER_1
 62
    39
  6
CONTINUOUS
 10
0.491996
 20
0.913496
  0
VERTEX
  8
LAYER_1
 62
    39
  6
CONTINUOUS
 10
0.462996
 20
0.913496
  0
VERTEX
  8
LAYER_1
 62
    39
  6
CONTINUOUS
 10
0.472996
 20
0.913496
  0
VERTEX
  8
LAYER_1
 62
    39
  6
CONTINUOUS
 10
0.501996
 20
0.883496
  0
SEQEND
  8
0
  0
POLYLINE
  8
LAYER_1
 62
    39
  6
CONTINUOUS
 66
     1
 40
0.004390
 41
0.004390
  0
VERTEX
  8
LAYER_1
 62
    39
  6
CONTINUOUS
 10
0.532996
 20
0.942496
  0
VERTEX
  8
LAYER_1
 62
    39
  6
CONTINUOUS
 10
0.522996
 20
0.932496
  0
VERTEX
  8
LAYER_1
 62
    39
  6
CONTINUOUS
 10
0.532996
 20
0.942496
  0
VERTEX
  8
LAYER_1
 62
    39
  6
CONTINUOUS
 10
0.551996
 20
0.942496
  0
VERTEX
  8
LAYER_1
 62
    39
  6
CONTINUOUS
 10
0.561996
 20
0.932496
  0
VERTEX
  8
LAYER_1
 62
    39
  6
CONTINUOUS
 10
0.561996
 20
0.922496
  0
VERTEX
  8
LAYER_1
 62
    39
  6
CONTINUOUS
 10
0.551996
 20
0.913496
  0
VERTEX
  8
LAYER_1
 62
    39
  6
CONTINUOUS
 10
0.542996
 20
0.913496
  0
VERTEX
  8
LAYER_1
 62
    39
  6
CONTINUOUS
 10
0.551996
 20
0.913496
  0
VERTEX
  8
LAYER_1
 62
    39
  6
CONTINUOUS
 10
0.561996
 20
0.903496
  0
VERTEX
  8
LAYER_1
 62
    39
  6
CONTINUOUS
 10
0.561996
 20
0.893496
  0
VERTEX
  8
LAYER_1
 62
    39
  6
CONTINUOUS
 10
0.551996
 20
0.883496
  0
VERTEX
  8
LAYER_1
 62
    39
  6
CONTINUOUS
 10
0.532996
 20
0.883496
  0
VERTEX
  8
LAYER_1
 62
    39
  6
CONTINUOUS
 10
0.522996
 20
0.893496
  0
SEQEND
  8
0
  0
POLYLINE
  8
LAYER_1
 62
    39
  6
CONTINUOUS
 66
     1
 40
0.004390
 41
0.004390
 70
     1
  0
VERTEX
  8
LAYER_1
 62
    39
  6
CONTINUOUS
 10
0.511996
 20
1.088496
  0
VERTEX
  8
LAYER_1
 62
    39
  6
CONTINUOUS
 10
0.511996
 20
1.093496
  0
VERTEX
  8
LAYER_1
 62
    39
  6
CONTINUOUS
 10
0.510996
 20
1.098496
  0
VERTEX
  8
LAYER_1
 62
    39
  6
CONTINUOUS
 10
0.509996
 20
1.102496
  0
VERTEX
  8
LAYER_1
 62
    39
  6
CONTINUOUS
 10
0.507996
 20
1.107496
  0
VERTEX
  8
LAYER_1
 62
    39
  6
CONTINUOUS
 10
0.505996
 20
1.111496
  0
VERTEX
  8
LAYER_1
 62
    39
  6
CONTINUOUS
 10
0.503996
 20
1.115496
  0
VERTEX
  8
LAYER_1
 62
    39
  6
CONTINUOUS
 10
0.500996
 20
1.119496
  0
VERTEX
  8
LAYER_1
 62
    39
  6
CONTINUOUS
 10
0.496996
 20
1.123496
  0
VERTEX
  8
LAYER_1
 62
    39
  6
CONTINUOUS
 10
0.492996
 20
1.127496
  0
VERTEX
  8
LAYER_1
 62
    39
  6
CONTINUOUS
 10
0.488996
 20
1.129496
  0
VERTEX
  8
LAYER_1
 62
    39
  6
CONTINUOUS
 10
0.485996
 20
1.132496
  0
VERTEX
  8
LAYER_1
 62
    39
  6
CONTINUOUS
 10
0.480996
 20
1.134496
  0
VERTEX
  8
LAYER_1
 62
    39
  6
CONTINUOUS
 10
0.475996
 20
1.136496
  0
VERTEX
  8
LAYER_1
 62
    39
  6
CONTINUOUS
 10
0.470996
 20
1.137496
  0
VERTEX
  8
LAYER_1
 62
    39
  6
CONTINUOUS
 10
0.465996
 20
1.137496
  0
VERTEX
  8
LAYER_1
 62
    39
  6
CONTINUOUS
 10
0.460996
 20
1.138496
  0
VERTEX
  8
LAYER_1
 62
    39
  6
CONTINUOUS
 10
0.455996
 20
1.137496
  0
VERTEX
  8
LAYER_1
 62
    39
  6
CONTINUOUS
 10
0.450996
 20
1.136496
  0
VERTEX
  8
LAYER_1
 62
    39
  6
CONTINUOUS
 10
0.445996
 20
1.135496
  0
VERTEX
  8
LAYER_1
 62
    39
  6
CONTINUOUS
 10
0.441996
 20
1.133496
  0
VERTEX
  8
LAYER_1
 62
    39
  6
CONTINUOUS
 10
0.436996
 20
1.131496
  0
VERTEX
  8
LAYER_1
 62
    39
  6
CONTINUOUS
 10
0.432996
 20
1.128496
  0
VERTEX
  8
LAYER_1
 62
    39
  6
CONTINUOUS
 10
0.428996
 20
1.125496
  0
VERTEX
  8
LAYER_1
 62
    39
  6
CONTINUOUS
 10
0.424996
 20
1.121496
  0
VERTEX
  8
LAYER_1
 62
    39
  6
CONTINUOUS
 10
0.422996
 20
1.117496
  0
VERTEX
  8
LAYER_1
 62
    39
  6
CONTINUOUS
 10
0.419996
 20
1.113496
  0
VERTEX
  8
LAYER_1
 62
    39
  6
CONTINUOUS
 10
0.417996
 20
1.109496
  0
VERTEX
  8
LAYER_1
 62
    39
  6
CONTINUOUS
 10
0.415996
 20
1.104496
  0
VERTEX
  8
LAYER_1
 62
    39
  6
CONTINUOUS
 10
0.413996
 20
1.100496
  0
VERTEX
  8
LAYER_1
 62
    39
  6
CONTINUOUS
 10
0.412996
 20
1.095496
  0
VERTEX
  8
LAYER_1
 62
    39
  6
CONTINUOUS
 10
0.412996
 20
1.090496
  0
VERTEX
  8
LAYER_1
 62
    39
  6
CONTINUOUS
 10
0.412996
 20
1.085496
  0
VERTEX
  8
LAYER_1
 62
    39
  6
CONTINUOUS
 10
0.412996
 20
1.080496
  0
VERTEX
  8
LAYER_1
 62
    39
  6
CONTINUOUS
 10
0.413996
 20
1.075496
  0
VERTEX
  8
LAYER_1
 62
    39
  6
CONTINUOUS
 10
0.415996
 20
1.070496
  0
VERTEX
  8
LAYER_1
 62
    39
  6
CONTINUOUS
 10
0.417996
 20
1.066496
  0
VERTEX
  8
LAYER_1
 62
    39
  6
CONTINUOUS
 10
0.419996
 20
1.061496
  0
VERTEX
  8
LAYER_1
 62
    39
  6
CONTINUOUS
 10
0.422996
 20
1.057496
  0
VERTEX
  8
LAYER_1
 62
    39
  6
CONTINUOUS
 10
0.424996
 20
1.053496
  0
VERTEX
  8
LAYER_1
 62
    39
  6
CONTINUOUS
 10
0.428996
 20
1.050496
  0
VERTEX
  8
LAYER_1
 62
    39
  6
CONTINUOUS
 10
0.432996
 20
1.047496
  0
VERTEX
  8
LAYER_1
 62
    39
  6
CONTINUOUS
 10
0.436996
 20
1.044496
  0
VERTEX
  8
LAYER_1
 62
    39
  6
CONTINUOUS
 10
0.441996
 20
1.041496
  0
VERTEX
  8
LAYER_1
 62
    39
  6
CONTINUOUS
 10
0.445996
 20
1.040496
  0
VERTEX
  8
LAYER_1
 62
    39
  6
CONTINUOUS
 10
0.450996
 20
1.038496
  0
VERTEX
  8
LAYER_1
 62
    39
  6
CONTINUOUS
 10
0.455996
 20
1.038496
  0
VERTEX
  8
LAYER_1
 62
    39
  6
CONTINUOUS
 10
0.460996
 20
1.038496
  0
VERTEX
  8
LAYER_1
 62
    39
  6
CONTINUOUS
 10
0.465996
 20
1.038496
  0
VERTEX
  8
LAYER_1
 62
    39
  6
CONTINUOUS
 10
0.470996
 20
1.038496
  0
VERTEX
  8
LAYER_1
 62
    39
  6
CONTINUOUS
 10
0.475996
 20
1.039496
  0
VERTEX
  8
LAYER_1
 62
    39
  6
CONTINUOUS
 10
0.480996
 20
1.041496
  0
VERTEX
  8
LAYER_1
 62
    39
  6
CONTINUOUS
 10
0.485996
 20
1.043496
  0
VERTEX
  8
LAYER_1
 62
    39
  6
CONTINUOUS
 10
0.488996
 20
1.045496
  0
VERTEX
  8
LAYER_1
 62
    39
  6
CONTINUOUS
 10
0.492996
 20
1.048496
  0
VERTEX
  8
LAYER_1
 62
    39
  6
CONTINUOUS
 10
0.496996
 20
1.051496
  0
VERTEX
  8
LAYER_1
 62
    39
  6
CONTINUOUS
 10
0.500996
 20
1.055496
  0
VERTEX
  8
LAYER_1
 62
    39
  6
CONTINUOUS
 10
0.503996
 20
1.059496
  0
VERTEX
  8
LAYER_1
 62
    39
  6
CONTINUOUS
 10
0.505996
 20
1.064496
  0
VERTEX
  8
LAYER_1
 62
    39
  6
CONTINUOUS
 10
0.507996
 20
1.068496
  0
VERTEX
  8
LAYER_1
 62
    39
  6
CONTINUOUS
 10
0.509996
 20
1.073496
  0
VERTEX
  8
LAYER_1
 62
    39
  6
CONTINUOUS
 10
0.510996
 20
1.078496
  0
VERTEX
  8
LAYER_1
 62
    39
  6
CONTINUOUS
 10
0.511996
 20
1.083496
  0
SEQEND
  8
0
  0
POLYLINE
  8
LAYER_1
 62
    39
  6
CONTINUOUS
 66
     1
 40
0.004390
 41
0.004390
  0
VERTEX
  8
LAYER_1
 62
    39
  6
CONTINUOUS
 10
0.436996
 20
1.182496
  0
VERTEX
  8
LAYER_1
 62
    39
  6
CONTINUOUS
 10
0.436996
 20
1.223496
  0
VERTEX
  8
LAYER_1
 62
    39
  6
CONTINUOUS
 10
0.436996
 20
1.203496
  0
VERTEX
  8
LAYER_1
 62
    39
  6
CONTINUOUS
 10
0.496996
 20
1.203496
  0
SEQEND
  8
0
  0
POLYLINE
  8
LAYER_1
 62
    39
  6
CONTINUOUS
 66
     1
 40
0.004390
 41
0.004390
  0
VERTEX
  8
LAYER_1
 62
    39
  6
CONTINUOUS
 10
0.446996
 20
1.242496
  0
VERTEX
  8
LAYER_1
 62
    39
  6
CONTINUOUS
 10
0.436996
 20
1.252496
  0
VERTEX
  8
LAYER_1
 62
    39
  6
CONTINUOUS
 10
0.496996
 20
1.252496
  0
VERTEX
  8
LAYER_1
 62
    39
  6
CONTINUOUS
 10
0.496996
 20
1.242496
  0
VERTEX
  8
LAYER_1
 62
    39
  6
CONTINUOUS
 10
0.496996
 20
1.263496
  0
SEQEND
  8
0
  0
POLYLINE
  8
LAYER_1
 62
    39
  6
CONTINUOUS
 66
     1
 40
0.004390
 41
0.004390
  0
VERTEX
  8
LAYER_1
 62
    39
  6
CONTINUOUS
 10
0.446996
 20
1.283496
  0
VERTEX
  8
LAYER_1
 62
    39
  6
CONTINUOUS
 10
0.436996
 20
1.292496
  0
VERTEX
  8
LAYER_1
 62
    39
  6
CONTINUOUS
 10
0.436996
 20
1.312496
  0
VERTEX
  8
LAYER_1
 62
    39
  6
CONTINUOUS
 10
0.446996
 20
1.323496
  0
VERTEX
  8
LAYER_1
 62
    39
  6
CONTINUOUS
 10
0.457996
 20
1.323496
  0
VERTEX
  8
LAYER_1
 62
    39
  6
CONTINUOUS
 10
0.467996
 20
1.312496
  0
VERTEX
  8
LAYER_1
 62
    39
  6
CONTINUOUS
 10
0.467996
 20
1.292496
  0
VERTEX
  8
LAYER_1
 62
    39
  6
CONTINUOUS
 10
0.477996
 20
1.283496
  0
VERTEX
  8
LAYER_1
 62
    39
  6
CONTINUOUS
 10
0.496996
 20
1.283496
  0
VERTEX
  8
LAYER_1
 62
    39
  6
CONTINUOUS
 10
0.496996
 20
1.323496
  0
SEQEND
  8
0
  0
POLYLINE
  8
LAYER_1
 62
    39
  6
CONTINUOUS
 66
     1
 40
0.004390
 41
0.004390
  0
VERTEX
  8
LAYER_1
 62
    39
  6
CONTINUOUS
 10
0.292996
 20
0.903496
  0
VERTEX
  8
LAYER_1
 62
    39
  6
CONTINUOUS
 10
0.232996
 20
0.903496
  0
VERTEX
  8
LAYER_1
 62
    39
  6
CONTINUOUS
 10
0.232996
 20
0.932496
  0
VERTEX
  8
LAYER_1
 62
    39
  6
CONTINUOUS
 10
0.241996
 20
0.942496
  0
VERTEX
  8
LAYER_1
 62
    39
  6
CONTINUOUS
 10
0.251996
 20
0.942496
  0
VERTEX
  8
LAYER_1
 62
    39
  6
CONTINUOUS
 10
0.261996
 20
0.932496
  0
VERTEX
  8
LAYER_1
 62
    39
  6
CONTINUOUS
 10
0.261996
 20
0.903496
  0
VERTEX
  8
LAYER_1
 62
    39
  6
CONTINUOUS
 10
0.261996
 20
0.913496
  0
VERTEX
  8
LAYER_1
 62
    39
  6
CONTINUOUS
 10
0.292996
 20
0.942496
  0
SEQEND
  8
0
  0
POLYLINE
  8
LAYER_1
 62
    39
  6
CONTINUOUS
 66
     1
 40
0.004390
 41
0.004390
  0
VERTEX
  8
LAYER_1
 62
    39
  6
CONTINUOUS
 10
0.261996
 20
0.992496
  0
VERTEX
  8
LAYER_1
 62
    39
  6
CONTINUOUS
 10
0.261996
 20
0.963496
  0
VERTEX
  8
LAYER_1
 62
    39
  6
CONTINUOUS
 10
0.261996
 20
0.992496
  0
VERTEX
  8
LAYER_1
 62
    39
  6
CONTINUOUS
 10
0.272996
 20
1.002496
  0
VERTEX
  8
LAYER_1
 62
    39
  6
CONTINUOUS
 10
0.282996
 20
1.002496
  0
VERTEX
  8
LAYER_1
 62
    39
  6
CONTINUOUS
 10
0.292996
 20
0.992496
  0
VERTEX
  8
LAYER_1
 62
    39
  6
CONTINUOUS
 10
0.292996
 20
0.973496
  0
VERTEX
  8
LAYER_1
 62
    39
  6
CONTINUOUS
 10
0.282996
 20
0.963496
  0
VERTEX
  8
LAYER_1
 62
    39
  6
CONTINUOUS
 10
0.251996
 20
0.963496
  0
VERTEX
  8
LAYER_1
 62
    39
  6
CONTINUOUS
 10
0.232996
 20
0.982496
  0
VERTEX
  8
LAYER_1
 62
    39
  6
CONTINUOUS
 10
0.232996
 20
0.992496
  0
SEQEND
  8
0
  0
POLYLINE
  8
LAYER_1
 62
    39
  6
CONTINUOUS
 66
     1
 40
0.004390
 41
0.004390
  0
VERTEX
  8
LAYER_1
 62
    39
  6
CONTINUOUS
 10
0.281996
 20
0.588496
  0
VERTEX
  8
LAYER_1
 62
    39
  6
CONTINUOUS
 10
0.291996
 20
0.588496
  0
VERTEX
  8
LAYER_1
 62
    39
  6
CONTINUOUS
 10
0.291996
 20
0.648496
  0
VERTEX
  8
LAYER_1
 62
    39
  6
CONTINUOUS
 10
0.281996
 20
0.648496
  0
VERTEX
  8
LAYER_1
 62
    39
  6
CONTINUOUS
 10
0.300996
 20
0.648496
  0
VERTEX
  8
LAYER_1
 62
    39
  6
CONTINUOUS
 10
0.291996
 20
0.648496
  0
VERTEX
  8
LAYER_1
 62
    39
  6
CONTINUOUS
 10
0.291996
 20
0.588496
  0
VERTEX
  8
LAYER_1
 62
    39
  6
CONTINUOUS
 10
0.300996
 20
0.588496
  0
SEQEND
  8
0
  0
POLYLINE
  8
LAYER_1
 62
    39
  6
CONTINUOUS
 66
     1
 40
0.004390
 41
0.004390
  0
VERTEX
  8
LAYER_1
 62
    39
  6
CONTINUOUS
 10
0.361996
 20
0.598496
  0
VERTEX
  8
LAYER_1
 62
    39
  6
CONTINUOUS
 10
0.351996
 20
0.588496
  0
VERTEX
  8
LAYER_1
 62
    39
  6
CONTINUOUS
 10
0.331996
 20
0.588496
  0
VERTEX
  8
LAYER_1
 62
    39
  6
CONTINUOUS
 10
0.320996
 20
0.598496
  0
VERTEX
  8
LAYER_1
 62
    39
  6
CONTINUOUS
 10
0.320996
 20
0.638496
  0
VERTEX
  8
LAYER_1
 62
    39
  6
CONTINUOUS
 10
0.331996
 20
0.648496
  0
VERTEX
  8
LAYER_1
 62
    39
  6
CONTINUOUS
 10
0.351996
 20
0.648496
  0
VERTEX
  8
LAYER_1
 62
    39
  6
CONTINUOUS
 10
0.361996
 20
0.638496
  0
SEQEND
  8
0
  0
POLYLINE
  8
LAYER_1
 62
    39
  6
CONTINUOUS
 66
     1
 40
0.004390
 41
0.004390
  0
VERTEX
  8
LAYER_1
 62
    39
  6
CONTINUOUS
 10
0.390996
 20
0.648496
  0
VERTEX
  8
LAYER_1
 62
    39
  6
CONTINUOUS
 10
0.380996
 20
0.638496
  0
VERTEX
  8
LAYER_1
 62
    39
  6
CONTINUOUS
 10
0.390996
 20
0.648496
  0
VERTEX
  8
LAYER_1
 62
    39
  6
CONTINUOUS
 10
0.411996
 20
0.648496
  0
VERTEX
  8
LAYER_1
 62
    39
  6
CONTINUOUS
 10
0.421996
 20
0.638496
  0
VERTEX
  8
LAYER_1
 62
    39
  6
CONTINUOUS
 10
0.421996
 20
0.627496
  0
VERTEX
  8
LAYER_1
 62
    39
  6
CONTINUOUS
 10
0.411996
 20
0.617496
  0
VERTEX
  8
LAYER_1
 62
    39
  6
CONTINUOUS
 10
0.401996
 20
0.617496
  0
VERTEX
  8
LAYER_1
 62
    39
  6
CONTINUOUS
 10
0.411996
 20
0.617496
  0
VERTEX
  8
LAYER_1
 62
    39
  6
CONTINUOUS
 10
0.421996
 20
0.607496
  0
VERTEX
  8
LAYER_1
 62
    39
  6
CONTINUOUS
 10
0.421996
 20
0.598496
  0
VERTEX
  8
LAYER_1
 62
    39
  6
CONTINUOUS
 10
0.411996
 20
0.588496
  0
VERTEX
  8
LAYER_1
 62
    39
  6
CONTINUOUS
 10
0.390996
 20
0.588496
  0
VERTEX
  8
LAYER_1
 62
    39
  6
CONTINUOUS
 10
0.380996
 20
0.598496
  0
SEQEND
  8
0
  0
POLYLINE
  8
LAYER_1
 62
    39
  6
CONTINUOUS
 66
     1
 40
0.004390
 41
0.004390
  0
VERTEX
  8
LAYER_1
 62
    39
  6
CONTINUOUS
 10
0.477996
 20
0.364496
  0
VERTEX
  8
LAYER_1
 62
    39
  6
CONTINUOUS
 10
0.477996
 20
0.333496
  0
SEQEND
  8
0
  0
POLYLINE
  8
LAYER_1
 62
    39
  6
CONTINUOUS
 66
     1
 40
0.004390
 41
0.004390
  0
VERTEX
  8
LAYER_1
 62
    39
  6
CONTINUOUS
 10
0.461996
 20
0.349496
  0
VERTEX
  8
LAYER_1
 62
    39
  6
CONTINUOUS
 10
0.492996
 20
0.349496
  0
SEQEND
  8
0
  0
POLYLINE
  8
LAYER_1
 62
    39
  6
CONTINUOUS
 66
     1
 40
0.004390
 41
0.004390
 70
     1
  0
VERTEX
  8
LAYER_1
 62
    39
  6
CONTINUOUS
 10
0.537996
 20
0.288496
  0
VERTEX
  8
LAYER_1
 62
    39
  6
CONTINUOUS
 10
0.537996
 20
0.292496
  0
VERTEX
  8
LAYER_1
 62
    39
  6
CONTINUOUS
 10
0.536996
 20
0.297496
  0
VERTEX
  8
LAYER_1
 62
    39
  6
CONTINUOUS
 10
0.536996
 20
0.302496
  0
VERTEX
  8
LAYER_1
 62
    39
  6
CONTINUOUS
 10
0.535996
 20
0.307496
  0
VERTEX
  8
LAYER_1
 62
    39
  6
CONTINUOUS
 10
0.534996
 20
0.312496
  0
VERTEX
  8
LAYER_1
 62
    39
  6
CONTINUOUS
 10
0.532996
 20
0.317496
  0
VERTEX
  8
LAYER_1
 62
    39
  6
CONTINUOUS
 10
0.531996
 20
0.322496
  0
VERTEX
  8
LAYER_1
 62
    39
  6
CONTINUOUS
 10
0.529996
 20
0.326496
  0
VERTEX
  8
LAYER_1
 62
    39
  6
CONTINUOUS
 10
0.527996
 20
0.331496
  0
VERTEX
  8
LAYER_1
 62
    39
  6
CONTINUOUS
 10
0.524996
 20
0.336496
  0
VERTEX
  8
LAYER_1
 62
    39
  6
CONTINUOUS
 10
0.522996
 20
0.340496
  0
VERTEX
  8
LAYER_1
 62
    39
  6
CONTINUOUS
 10
0.519996
 20
0.344496
  0
VERTEX
  8
LAYER_1
 62
    39
  6
CONTINUOUS
 10
0.516996
 20
0.348496
  0
VERTEX
  8
LAYER_1
 62
    39
  6
CONTINUOUS
 10
0.513996
 20
0.351496
  0
VERTEX
  8
LAYER_1
 62
    39
  6
CONTINUOUS
 10
0.510996
 20
0.355496
  0
VERTEX
  8
LAYER_1
 62
    39
  6
CONTINUOUS
 10
0.506996
 20
0.359496
  0
VERTEX
  8
LAYER_1
 62
    39
  6
CONTINUOUS
 10
0.502996
 20
0.362496
  0
VERTEX
  8
LAYER_1
 62
    39
  6
CONTINUOUS
 10
0.499996
 20
0.365496
  0
VERTEX
  8
LAYER_1
 62
    39
  6
CONTINUOUS
 10
0.495996
 20
0.368496
  0
VERTEX
  8
LAYER_1
 62
    39
  6
CONTINUOUS
 10
0.490996
 20
0.371496
  0
VERTEX
  8
LAYER_1
 62
    39
  6
CONTINUOUS
 10
0.487996
 20
0.374496
  0
VERTEX
  8
LAYER_1
 62
    39
  6
CONTINUOUS
 10
0.483996
 20
0.376496
  0
VERTEX
  8
LAYER_1
 62
    39
  6
CONTINUOUS
 10
0.478996
 20
0.379496
  0
VERTEX
  8
LAYER_1
 62
    39
  6
CONTINUOUS
 10
0.473996
 20
0.381496
  0
VERTEX
  8
LAYER_1
 62
    39
  6
CONTINUOUS
 10
0.469996
 20
0.382496
  0
VERTEX
  8
LAYER_1
 62
    39
  6
CONTINUOUS
 10
0.464996
 20
0.384496
  0
VERTEX
  8
LAYER_1
 62
    39
  6
CONTINUOUS
 10
0.459996
 20
0.385496
  0
VERTEX
  8
LAYER_1
 62
    39
  6
CONTINUOUS
 10
0.454996
 20
0.386496
  0
VERTEX
  8
LAYER_1
 62
    39
  6
CONTINUOUS
 10
0.449996
 20
0.387496
  0
VERTEX
  8
LAYER_1
 62
    39
  6
CONTINUOUS
 10
0.444996
 20
0.387496
  0
VERTEX
  8
LAYER_1
 62
    39
  6
CONTINUOUS
 10
0.439996
 20
0.388496
  0
VERTEX
  8
LAYER_1
 62
    39
  6
CONTINUOUS
 10
0.434996
 20
0.388496
  0
VERTEX
  8
LAYER_1
 62
    39
  6
CONTINUOUS
 10
0.429996
 20
0.387496
  0
VERTEX
  8
LAYER_1
 62
    39
  6
CONTINUOUS
 10
0.424996
 20
0.387496
  0
VERTEX
  8
LAYER_1
 62
    39
  6
CONTINUOUS
 10
0.420996
 20
0.386496
  0
VERTEX
  8
LAYER_1
 62
    39
  6
CONTINUOUS
 10
0.415996
 20
0.385496
  0
VERTEX
  8
LAYER_1
 62
    39
  6
CONTINUOUS
 10
0.410996
 20
0.384496
  0
VERTEX
  8
LAYER_1
 62
    39
  6
CONTINUOUS
 10
0.405996
 20
0.382496
  0
VERTEX
  8
LAYER_1
 62
    39
  6
CONTINUOUS
 10
0.400996
 20
0.381496
  0
VERTEX
  8
LAYER_1
 62
    39
  6
CONTINUOUS
 10
0.395996
 20
0.379496
  0
VERTEX
  8
LAYER_1
 62
    39
  6
CONTINUOUS
 10
0.391996
 20
0.376496
  0
VERTEX
  8
LAYER_1
 62
    39
  6
CONTINUOUS
 10
0.386996
 20
0.374496
  0
VERTEX
  8
LAYER_1
 62
    39
  6
CONTINUOUS
 10
0.382996
 20
0.371496
  0
VERTEX
  8
LAYER_1
 62
    39
  6
CONTINUOUS
 10
0.378996
 20
0.368496
  0
VERTEX
  8
LAYER_1
 62
    39
  6
CONTINUOUS
 10
0.374996
 20
0.365496
  0
VERTEX
  8
LAYER_1
 62
    39
  6
CONTINUOUS
 10
0.370996
 20
0.362496
  0
VERTEX
  8
LAYER_1
 62
    39
  6
CONTINUOUS
 10
0.366996
 20
0.359496
  0
VERTEX
  8
LAYER_1
 62
    39
  6
CONTINUOUS
 10
0.363996
 20
0.355496
  0
VERTEX
  8
LAYER_1
 62
    39
  6
CONTINUOUS
 10
0.360996
 20
0.351496
  0
VERTEX
  8
LAYER_1
 62
    39
  6
CONTINUOUS
 10
0.357996
 20
0.348496
  0
VERTEX
  8
LAYER_1
 62
    39
  6
CONTINUOUS
 10
0.354996
 20
0.344496
  0
VERTEX
  8
LAYER_1
 62
    39
  6
CONTINUOUS
 10
0.352996
 20
0.340496
  0
VERTEX
  8
LAYER_1
 62
    39
  6
CONTINUOUS
 10
0.349996
 20
0.336496
  0
VERTEX
  8
LAYER_1
 62
    39
  6
CONTINUOUS
 10
0.347996
 20
0.331496
  0
VERTEX
  8
LAYER_1
 62
    39
  6
CONTINUOUS
 10
0.345996
 20
0.326496
  0
VERTEX
  8
LAYER_1
 62
    39
  6
CONTINUOUS
 10
0.343996
 20
0.322496
  0
VERTEX
  8
LAYER_1
 62
    39
  6
CONTINUOUS
 10
0.341996
 20
0.317496
  0
VERTEX
  8
LAYER_1
 62
    39
  6
CONTINUOUS
 10
0.340996
 20
0.312496
  0
VERTEX
  8
LAYER_1
 62
    39
  6
CONTINUOUS
 10
0.339996
 20
0.307496
  0
VERTEX
  8
LAYER_1
 62
    39
  6
CONTINUOUS
 10
0.338996
 20
0.302496
  0
VERTEX
  8
LAYER_1
 62
    39
  6
CONTINUOUS
 10
0.337996
 20
0.297496
  0
VERTEX
  8
LAYER_1
 62
    39
  6
CONTINUOUS
 10
0.337996
 20
0.292496
  0
VERTEX
  8
LAYER_1
 62
    39
  6
CONTINUOUS
 10
0.337996
 20
0.288496
  0
VERTEX
  8
LAYER_1
 62
    39
  6
CONTINUOUS
 10
0.337996
 20
0.283496
  0
VERTEX
  8
LAYER_1
 62
    39
  6
CONTINUOUS
 10
0.337996
 20
0.278496
  0
VERTEX
  8
LAYER_1
 62
    39
  6
CONTINUOUS
 10
0.338996
 20
0.273496
  0
VERTEX
  8
LAYER_1
 62
    39
  6
CONTINUOUS
 10
0.339996
 20
0.268496
  0
VERTEX
  8
LAYER_1
 62
    39
  6
CONTINUOUS
 10
0.340996
 20
0.263496
  0
VERTEX
  8
LAYER_1
 62
    39
  6
CONTINUOUS
 10
0.341996
 20
0.258496
  0
VERTEX
  8
LAYER_1
 62
    39
  6
CONTINUOUS
 10
0.343996
 20
0.253496
  0
VERTEX
  8
LAYER_1
 62
    39
  6
CONTINUOUS
 10
0.345996
 20
0.249496
  0
VERTEX
  8
LAYER_1
 62
    39
  6
CONTINUOUS
 10
0.347996
 20
0.244496
  0
VERTEX
  8
LAYER_1
 62
    39
  6
CONTINUOUS
 10
0.349996
 20
0.239496
  0
VERTEX
  8
LAYER_1
 62
    39
  6
CONTINUOUS
 10
0.352996
 20
0.235496
  0
VERTEX
  8
LAYER_1
 62
    39
  6
CONTINUOUS
 10
0.354996
 20
0.231496
  0
VERTEX
  8
LAYER_1
 62
    39
  6
CONTINUOUS
 10
0.357996
 20
0.227496
  0
VERTEX
  8
LAYER_1
 62
    39
  6
CONTINUOUS
 10
0.360996
 20
0.224496
  0
VERTEX
  8
LAYER_1
 62
    39
  6
CONTINUOUS
 10
0.363996
 20
0.220496
  0
VERTEX
  8
LAYER_1
 62
    39
  6
CONTINUOUS
 10
0.366996
 20
0.216496
  0
VERTEX
  8
LAYER_1
 62
    39
  6
CONTINUOUS
 10
0.370996
 20
0.213496
  0
VERTEX
  8
LAYER_1
 62
    39
  6
CONTINUOUS
 10
0.374996
 20
0.210496
  0
VERTEX
  8
LAYER_1
 62
    39
  6
CONTINUOUS
 10
0.378996
 20
0.207496
  0
VERTEX
  8
LAYER_1
 62
    39
  6
CONTINUOUS
 10
0.382996
 20
0.204496
  0
VERTEX
  8
LAYER_1
 62
    39
  6
CONTINUOUS
 10
0.386996
 20
0.201496
  0
VERTEX
  8
LAYER_1
 62
    39
  6
CONTINUOUS
 10
0.391996
 20
0.199496
  0
VERTEX
  8
LAYER_1
 62
    39
  6
CONTINUOUS
 10
0.395996
 20
0.196496
  0
VERTEX
  8
LAYER_1
 62
    39
  6
CONTINUOUS
 10
0.400996
 20
0.194496
  0
VERTEX
  8
LAYER_1
 62
    39
  6
CONTINUOUS
 10
0.405996
 20
0.193496
  0
VERTEX
  8
LAYER_1
 62
    39
  6
CONTINUOUS
 10
0.410996
 20
0.191496
  0
VERTEX
  8
LAYER_1
 62
    39
  6
CONTINUOUS
 10
0.415996
 20
0.190496
  0
VERTEX
  8
LAYER_1
 62
    39
  6
CONTINUOUS
 10
0.420996
 20
0.189496
  0
VERTEX
  8
LAYER_1
 62
    39
  6
CONTINUOUS
 10
0.424996
 20
0.188496
  0
VERTEX
  8
LAYER_1
 62
    39
  6
CONTINUOUS
 10
0.429996
 20
0.188496
  0
VERTEX
  8
LAYER_1
 62
    39
  6
CONTINUOUS
 10
0.434996
 20
0.187496
  0
VERTEX
  8
LAYER_1
 62
    39
  6
CONTINUOUS
 10
0.439996
 20
0.187496
  0
VERTEX
  8
LAYER_1
 62
    39
  6
CONTINUOUS
 10
0.444996
 20
0.188496
  0
VERTEX
  8
LAYER_1
 62
    39
  6
CONTINUOUS
 10
0.449996
 20
0.188496
  0
VERTEX
  8
LAYER_1
 62
    39
  6
CONTINUOUS
 10
0.454996
 20
0.189496
  0
VERTEX
  8
LAYER_1
 62
    39
  6
CONTINUOUS
 10
0.459996
 20
0.190496
  0
VERTEX
  8
LAYER_1
 62
    39
  6
CONTINUOUS
 10
0.464996
 20
0.191496
  0
VERTEX
  8
LAYER_1
 62
    39
  6
CONTINUOUS
 10
0.469996
 20
0.193496
  0
VERTEX
  8
LAYER_1
 62
    39
  6
CONTINUOUS
 10
0.473996
 20
0.194496
  0
VERTEX
  8
LAYER_1
 62
    39
  6
CONTINUOUS
 10
0.478996
 20
0.196496
  0
VERTEX
  8
LAYER_1
 62
    39
  6
CONTINUOUS
 10
0.483996
 20
0.199496
  0
VERTEX
  8
LAYER_1
 62
    39
  6
CONTINUOUS
 10
0.487996
 20
0.201496
  0
VERTEX
  8
LAYER_1
 62
    39
  6
CONTINUOUS
 10
0.490996
 20
0.204496
  0
VERTEX
  8
LAYER_1
 62
    39
  6
CONTINUOUS
 10
0.495996
 20
0.207496
  0
VERTEX
  8
LAYER_1
 62
    39
  6
CONTINUOUS
 10
0.499996
 20
0.210496
  0
VERTEX
  8
LAYER_1
 62
    39
  6
CONTINUOUS
 10
0.502996
 20
0.213496
  0
VERTEX
  8
LAYER_1
 62
    39
  6
CONTINUOUS
 10
0.506996
 20
0.216496
  0
VERTEX
  8
LAYER_1
 62
    39
  6
CONTINUOUS
 10
0.510996
 20
0.220496
  0
VERTEX
  8
LAYER_1
 62
    39
  6
CONTINUOUS
 10
0.513996
 20
0.224496
  0
VERTEX
  8
LAYER_1
 62
    39
  6
CONTINUOUS
 10
0.516996
 20
0.227496
  0
VERTEX
  8
LAYER_1
 62
    39
  6
CONTINUOUS
 10
0.519996
 20
0.231496
  0
VERTEX
  8
LAYER_1
 62
    39
  6
CONTINUOUS
 10
0.522996
 20
0.235496
  0
VERTEX
  8
LAYER_1
 62
    39
  6
CONTINUOUS
 10
0.524996
 20
0.239496
  0
VERTEX
  8
LAYER_1
 62
    39
  6
CONTINUOUS
 10
0.527996
 20
0.244496
  0
VERTEX
  8
LAYER_1
 62
    39
  6
CONTINUOUS
 10
0.529996
 20
0.249496
  0
VERTEX
  8
LAYER_1
 62
    39
  6
CONTINUOUS
 10
0.531996
 20
0.253496
  0
VERTEX
  8
LAYER_1
 62
    39
  6
CONTINUOUS
 10
0.532996
 20
0.258496
  0
VERTEX
  8
LAYER_1
 62
    39
  6
CONTINUOUS
 10
0.534996
 20
0.263496
  0
VERTEX
  8
LAYER_1
 62
    39
  6
CONTINUOUS
 10
0.535996
 20
0.268496
  0
VERTEX
  8
LAYER_1
 62
    39
  6
CONTINUOUS
 10
0.536996
 20
0.273496
  0
VERTEX
  8
LAYER_1
 62
    39
  6
CONTINUOUS
 10
0.536996
 20
0.278496
  0
VERTEX
  8
LAYER_1
 62
    39
  6
CONTINUOUS
 10
0.537996
 20
0.283496
  0
SEQEND
  8
0
  0
POLYLINE
  8
LAYER_1
 62
    39
  6
CONTINUOUS
 66
     1
 40
0.004390
 41
0.004390
  0
VERTEX
  8
LAYER_1
 62
    39
  6
CONTINUOUS
 10
0.446996
 20
0.247496
  0
VERTEX
  8
LAYER_1
 62
    39
  6
CONTINUOUS
 10
0.436996
 20
0.258496
  0
VERTEX
  8
LAYER_1
 62
    39
  6
CONTINUOUS
 10
0.446996
 20
0.247496
  0
VERTEX
  8
LAYER_1
 62
    39
  6
CONTINUOUS
 10
0.446996
 20
0.227496
  0
VERTEX
  8
LAYER_1
 62
    39
  6
CONTINUOUS
 10
0.436996
 20
0.218496
  0
VERTEX
  8
LAYER_1
 62
    39
  6
CONTINUOUS
 10
0.397996
 20
0.218496
  0
VERTEX
  8
LAYER_1
 62
    39
  6
CONTINUOUS
 10
0.386996
 20
0.227496
  0
VERTEX
  8
LAYER_1
 62
    39
  6
CONTINUOUS
 10
0.386996
 20
0.247496
  0
VERTEX
  8
LAYER_1
 62
    39
  6
CONTINUOUS
 10
0.397996
 20
0.258496
  0
SEQEND
  8
0
  0
POLYLINE
  8
LAYER_1
 62
    39
  6
CONTINUOUS
 66
     1
 40
0.004390
 41
0.004390
  0
VERTEX
  8
LAYER_1
 62
    39
  6
CONTINUOUS
 10
0.397996
 20
0.278496
  0
VERTEX
  8
LAYER_1
 62
    39
  6
CONTINUOUS
 10
0.386996
 20
0.288496
  0
VERTEX
  8
LAYER_1
 62
    39
  6
CONTINUOUS
 10
0.446996
 20
0.288496
  0
VERTEX
  8
LAYER_1
 62
    39
  6
CONTINUOUS
 10
0.446996
 20
0.278496
  0
VERTEX
  8
LAYER_1
 62
    39
  6
CONTINUOUS
 10
0.446996
 20
0.297496
  0
SEQEND
  8
0
  0
POLYLINE
  8
LAYER_1
 62
    39
  6
CONTINUOUS
 66
     1
 40
0.004390
 41
0.004390
  0
VERTEX
  8
LAYER_1
 62
    39
  6
CONTINUOUS
 10
0.397996
 20
0.317496
  0
VERTEX
  8
LAYER_1
 62
    39
  6
CONTINUOUS
 10
0.386996
 20
0.328496
  0
VERTEX
  8
LAYER_1
 62
    39
  6
CONTINUOUS
 10
0.386996
 20
0.348496
  0
VERTEX
  8
LAYER_1
 62
    39
  6
CONTINUOUS
 10
0.397996
 20
0.357496
  0
VERTEX
  8
LAYER_1
 62
    39
  6
CONTINUOUS
 10
0.407996
 20
0.357496
  0
VERTEX
  8
LAYER_1
 62
    39
  6
CONTINUOUS
 10
0.417996
 20
0.348496
  0
VERTEX
  8
LAYER_1
 62
    39
  6
CONTINUOUS
 10
0.417996
 20
0.328496
  0
VERTEX
  8
LAYER_1
 62
    39
  6
CONTINUOUS
 10
0.426996
 20
0.317496
  0
VERTEX
  8
LAYER_1
 62
    39
  6
CONTINUOUS
 10
0.446996
 20
0.317496
  0
VERTEX
  8
LAYER_1
 62
    39
  6
CONTINUOUS
 10
0.446996
 20
0.357496
  0
SEQEND
  8
0
  0
POLYLINE
  8
LAYER_1
 62
    39
  6
CONTINUOUS
 66
     1
 40
0.004390
 41
0.004390
  0
VERTEX
  8
LAYER_1
 62
    39
  6
CONTINUOUS
 10
0.386996
 20
0.138496
  0
VERTEX
  8
LAYER_1
 62
    39
  6
CONTINUOUS
 10
0.587996
 20
0.138496
  0
SEQEND
  8
0
  0
POLYLINE
  8
LAYER_1
 62
    39
  6
CONTINUOUS
 66
     1
 40
0.004390
 41
0.004390
  0
VERTEX
  8
LAYER_1
 62
    39
  6
CONTINUOUS
 10
0.636996
 20
0.088496
  0
VERTEX
  8
LAYER_1
 62
    39
  6
CONTINUOUS
 10
0.636996
 20
0.093496
  0
VERTEX
  8
LAYER_1
 62
    39
  6
CONTINUOUS
 10
0.635996
 20
0.098496
  0
VERTEX
  8
LAYER_1
 62
    39
  6
CONTINUOUS
 10
0.634996
 20
0.102496
  0
VERTEX
  8
LAYER_1
 62
    39
  6
CONTINUOUS
 10
0.633996
 20
0.106496
  0
VERTEX
  8
LAYER_1
 62
    39
  6
CONTINUOUS
 10
0.630996
 20
0.111496
  0
VERTEX
  8
LAYER_1
 62
    39
  6
CONTINUOUS
 10
0.628996
 20
0.115496
  0
VERTEX
  8
LAYER_1
 62
    39
  6
CONTINUOUS
 10
0.625996
 20
0.119496
  0
VERTEX
  8
LAYER_1
 62
    39
  6
CONTINUOUS
 10
0.622996
 20
0.123496
  0
VERTEX
  8
LAYER_1
 62
    39
  6
CONTINUOUS
 10
0.618996
 20
0.126496
  0
VERTEX
  8
LAYER_1
 62
    39
  6
CONTINUOUS
 10
0.614996
 20
0.129496
  0
VERTEX
  8
LAYER_1
 62
    39
  6
CONTINUOUS
 10
0.611996
 20
0.132496
  0
VERTEX
  8
LAYER_1
 62
    39
  6
CONTINUOUS
 10
0.606996
 20
0.134496
  0
VERTEX
  8
LAYER_1
 62
    39
  6
CONTINUOUS
 10
0.601996
 20
0.135496
  0
VERTEX
  8
LAYER_1
 62
    39
  6
CONTINUOUS
 10
0.597996
 20
0.137496
  0
VERTEX
  8
LAYER_1
 62
    39
  6
CONTINUOUS
 10
0.592996
 20
0.137496
  0
VERTEX
  8
LAYER_1
 62
    39
  6
CONTINUOUS
 10
0.587996
 20
0.138496
  0
SEQEND
  8
0
  0
POLYLINE
  8
LAYER_1
 62
    39
  6
CONTINUOUS
 66
     1
 40
0.004390
 41
0.004390
  0
VERTEX
  8
LAYER_1
 62
    39
  6
CONTINUOUS
 10
0.587996
 20
0.038496
  0
VERTEX
  8
LAYER_1
 62
    39
  6
CONTINUOUS
 10
0.592996
 20
0.038496
  0
VERTEX
  8
LAYER_1
 62
    39
  6
CONTINUOUS
 10
0.597996
 20
0.038496
  0
VERTEX
  8
LAYER_1
 62
    39
  6
CONTINUOUS
 10
0.601996
 20
0.039496
  0
VERTEX
  8
LAYER_1
 62
    39
  6
CONTINUOUS
 10
0.606996
 20
0.041496
  0
VERTEX
  8
LAYER_1
 62
    39
  6
CONTINUOUS
 10
0.611996
 20
0.043496
  0
VERTEX
  8
LAYER_1
 62
    39
  6
CONTINUOUS
 10
0.614996
 20
0.046496
  0
VERTEX
  8
LAYER_1
 62
    39
  6
CONTINUOUS
 10
0.618996
 20
0.049496
  0
VERTEX
  8
LAYER_1
 62
    39
  6
CONTINUOUS
 10
0.622996
 20
0.052496
  0
VERTEX
  8
LAYER_1
 62
    39
  6
CONTINUOUS
 10
0.625996
 20
0.056496
  0
VERTEX
  8
LAYER_1
 62
    39
  6
CONTINUOUS
 10
0.628996
 20
0.060496
  0
VERTEX
  8
LAYER_1
 62
    39
  6
CONTINUOUS
 10
0.630996
 20
0.064496
  0
VERTEX
  8
LAYER_1
 62
    39
  6
CONTINUOUS
 10
0.633996
 20
0.068496
  0
VERTEX
  8
LAYER_1
 62
    39
  6
CONTINUOUS
 10
0.634996
 20
0.073496
  0
VERTEX
  8
LAYER_1
 62
    39
  6
CONTINUOUS
 10
0.635996
 20
0.078496
  0
VERTEX
  8
LAYER_1
 62
    39
  6
CONTINUOUS
 10
0.636996
 20
0.083496
  0
VERTEX
  8
LAYER_1
 62
    39
  6
CONTINUOUS
 10
0.636996
 20
0.088496
  0
SEQEND
  8
0
  0
POLYLINE
  8
LAYER_1
 62
    39
  6
CONTINUOUS
 66
     1
 40
0.004390
 41
0.004390
  0
VERTEX
  8
LAYER_1
 62
    39
  6
CONTINUOUS
 10
0.587996
 20
0.038496
  0
VERTEX
  8
LAYER_1
 62
    39
  6
CONTINUOUS
 10
0.386996
 20
0.038496
  0
SEQEND
  8
0
  0
POLYLINE
  8
LAYER_1
 62
    39
  6
CONTINUOUS
 66
     1
 40
0.004390
 41
0.004390
  0
VERTEX
  8
LAYER_1
 62
    39
  6
CONTINUOUS
 10
0.451996
 20
0.057496
  0
VERTEX
  8
LAYER_1
 62
    39
  6
CONTINUOUS
 10
0.462996
 20
0.067496
  0
VERTEX
  8
LAYER_1
 62
    39
  6
CONTINUOUS
 10
0.451996
 20
0.057496
  0
VERTEX
  8
LAYER_1
 62
    39
  6
CONTINUOUS
 10
0.431996
 20
0.057496
  0
VERTEX
  8
LAYER_1
 62
    39
  6
CONTINUOUS
 10
0.422996
 20
0.067496
  0
VERTEX
  8
LAYER_1
 62
    39
  6
CONTINUOUS
 10
0.422996
 20
0.107496
  0
VERTEX
  8
LAYER_1
 62
    39
  6
CONTINUOUS
 10
0.431996
 20
0.117496
  0
VERTEX
  8
LAYER_1
 62
    39
  6
CONTINUOUS
 10
0.451996
 20
0.117496
  0
VERTEX
  8
LAYER_1
 62
    39
  6
CONTINUOUS
 10
0.462996
 20
0.107496
  0
SEQEND
  8
0
  0
POLYLINE
  8
LAYER_1
 62
    39
  6
CONTINUOUS
 66
     1
 40
0.004390
 41
0.004390
  0
VERTEX
  8
LAYER_1
 62
    39
  6
CONTINUOUS
 10
0.482996
 20
0.107496
  0
VERTEX
  8
LAYER_1
 62
    39
  6
CONTINUOUS
 10
0.491996
 20
0.117496
  0
VERTEX
  8
LAYER_1
 62
    39
  6
CONTINUOUS
 10
0.491996
 20
0.057496
  0
VERTEX
  8
LAYER_1
 62
    39
  6
CONTINUOUS
 10
0.482996
 20
0.057496
  0
VERTEX
  8
LAYER_1
 62
    39
  6
CONTINUOUS
 10
0.501996
 20
0.057496
  0
SEQEND
  8
0
  0
POLYLINE
  8
LAYER_1
 62
    39
  6
CONTINUOUS
 66
     1
 40
0.004390
 41
0.004390
  0
VERTEX
  8
LAYER_1
 62
    39
  6
CONTINUOUS
 10
0.522996
 20
0.107496
  0
VERTEX
  8
LAYER_1
 62
    39
  6
CONTINUOUS
 10
0.532996
 20
0.117496
  0
VERTEX
  8
LAYER_1
 62
    39
  6
CONTINUOUS
 10
0.532996
 20
0.057496
  0
VERTEX
  8
LAYER_1
 62
    39
  6
CONTINUOUS
 10
0.522996
 20
0.057496
  0
VERTEX
  8
LAYER_1
 62
    39
  6
CONTINUOUS
 10
0.542996
 20
0.057496
  0
SEQEND
  8
0
  0
POLYLINE
  8
LAYER_1
 62
    39
  6
CONTINUOUS
 66
     1
 40
0.004390
 41
0.004390
  0
VERTEX
  8
LAYER_1
 62
    39
  6
CONTINUOUS
 10
0.386996
 20
0.138496
  0
VERTEX
  8
LAYER_1
 62
    39
  6
CONTINUOUS
 10
0.381996
 20
0.137496
  0
VERTEX
  8
LAYER_1
 62
    39
  6
CONTINUOUS
 10
0.376996
 20
0.137496
  0
VERTEX
  8
LAYER_1
 62
    39
  6
CONTINUOUS
 10
0.371996
 20
0.135496
  0
VERTEX
  8
LAYER_1
 62
    39
  6
CONTINUOUS
 10
0.366996
 20
0.133496
  0
VERTEX
  8
LAYER_1
 62
    39
  6
CONTINUOUS
 10
0.362996
 20
0.131496
  0
VERTEX
  8
LAYER_1
 62
    39
  6
CONTINUOUS
 10
0.358996
 20
0.128496
  0
VERTEX
  8
LAYER_1
 62
    39
  6
CONTINUOUS
 10
0.354996
 20
0.125496
  0
VERTEX
  8
LAYER_1
 62
    39
  6
CONTINUOUS
 10
0.351996
 20
0.122496
  0
VERTEX
  8
LAYER_1
 62
    39
  6
CONTINUOUS
 10
0.347996
 20
0.118496
  0
VERTEX
  8
LAYER_1
 62
    39
  6
CONTINUOUS
 10
0.344996
 20
0.114496
  0
VERTEX
  8
LAYER_1
 62
    39
  6
CONTINUOUS
 10
0.342996
 20
0.109496
  0
VERTEX
  8
LAYER_1
 62
    39
  6
CONTINUOUS
 10
0.340996
 20
0.104496
  0
VERTEX
  8
LAYER_1
 62
    39
  6
CONTINUOUS
 10
0.338996
 20
0.100496
  0
VERTEX
  8
LAYER_1
 62
    39
  6
CONTINUOUS
 10
0.337996
 20
0.095496
  0
VERTEX
  8
LAYER_1
 62
    39
  6
CONTINUOUS
 10
0.337996
 20
0.090496
  0
VERTEX
  8
LAYER_1
 62
    39
  6
CONTINUOUS
 10
0.337996
 20
0.085496
  0
VERTEX
  8
LAYER_1
 62
    39
  6
CONTINUOUS
 10
0.337996
 20
0.080496
  0
VERTEX
  8
LAYER_1
 62
    39
  6
CONTINUOUS
 10
0.338996
 20
0.075496
  0
VERTEX
  8
LAYER_1
 62
    39
  6
CONTINUOUS
 10
0.340996
 20
0.070496
  0
VERTEX
  8
LAYER_1
 62
    39
  6
CONTINUOUS
 10
0.342996
 20
0.065496
  0
VERTEX
  8
LAYER_1
 62
    39
  6
CONTINUOUS
 10
0.344996
 20
0.061496
  0
VERTEX
  8
LAYER_1
 62
    39
  6
CONTINUOUS
 10
0.347996
 20
0.057496
  0
VERTEX
  8
LAYER_1
 62
    39
  6
CONTINUOUS
 10
0.351996
 20
0.053496
  0
VERTEX
  8
LAYER_1
 62
    39
  6
CONTINUOUS
 10
0.354996
 20
0.049496
  0
VERTEX
  8
LAYER_1
 62
    39
  6
CONTINUOUS
 10
0.358996
 20
0.046496
  0
VERTEX
  8
LAYER_1
 62
    39
  6
CONTINUOUS
 10
0.362996
 20
0.043496
  0
VERTEX
  8
LAYER_1
 62
    39
  6
CONTINUOUS
 10
0.366996
 20
0.041496
  0
VERTEX
  8
LAYER_1
 62
    39
  6
CONTINUOUS
 10
0.371996
 20
0.039496
  0
VERTEX
  8
LAYER_1
 62
    39
  6
CONTINUOUS
 10
0.376996
 20
0.038496
  0
VERTEX
  8
LAYER_1
 62
    39
  6
CONTINUOUS
 10
0.381996
 20
0.038496
  0
VERTEX
  8
LAYER_1
 62
    39
  6
CONTINUOUS
 10
0.386996
 20
0.038496
  0
SEQEND
  8
0
  0
POLYLINE
  8
LAYER_1
 62
    39
  6
CONTINUOUS
 66
     1
 40
0.004390
 41
0.004390
  0
VERTEX
  8
LAYER_1
 62
    39
  6
CONTINUOUS
 10
0.217996
 20
0.242496
  0
VERTEX
  8
LAYER_1
 62
    39
  6
CONTINUOUS
 10
0.157996
 20
0.242496
  0
VERTEX
  8
LAYER_1
 62
    39
  6
CONTINUOUS
 10
0.157996
 20
0.273496
  0
VERTEX
  8
LAYER_1
 62
    39
  6
CONTINUOUS
 10
0.167996
 20
0.283496
  0
VERTEX
  8
LAYER_1
 62
    39
  6
CONTINUOUS
 10
0.176996
 20
0.283496
  0
VERTEX
  8
LAYER_1
 62
    39
  6
CONTINUOUS
 10
0.186996
 20
0.273496
  0
VERTEX
  8
LAYER_1
 62
    39
  6
CONTINUOUS
 10
0.186996
 20
0.242496
  0
VERTEX
  8
LAYER_1
 62
    39
  6
CONTINUOUS
 10
0.186996
 20
0.252496
  0
VERTEX
  8
LAYER_1
 62
    39
  6
CONTINUOUS
 10
0.217996
 20
0.283496
  0
SEQEND
  8
0
  0
POLYLINE
  8
LAYER_1
 62
    39
  6
CONTINUOUS
 66
     1
 40
0.004390
 41
0.004390
  0
VERTEX
  8
LAYER_1
 62
    39
  6
CONTINUOUS
 10
0.217996
 20
0.302496
  0
VERTEX
  8
LAYER_1
 62
    39
  6
CONTINUOUS
 10
0.157996
 20
0.302496
  0
VERTEX
  8
LAYER_1
 62
    39
  6
CONTINUOUS
 10
0.157996
 20
0.343496
  0
VERTEX
  8
LAYER_1
 62
    39
  6
CONTINUOUS
 10
0.157996
 20
0.302496
  0
VERTEX
  8
LAYER_1
 62
    39
  6
CONTINUOUS
 10
0.186996
 20
0.302496
  0
VERTEX
  8
LAYER_1
 62
    39
  6
CONTINUOUS
 10
0.186996
 20
0.323496
  0
VERTEX
  8
LAYER_1
 62
    39
  6
CONTINUOUS
 10
0.186996
 20
0.302496
  0
VERTEX
  8
LAYER_1
 62
    39
  6
CONTINUOUS
 10
0.217996
 20
0.302496
  0
VERTEX
  8
LAYER_1
 62
    39
  6
CONTINUOUS
 10
0.217996
 20
0.343496
  0
SEQEND
  8
0
  0
POLYLINE
  8
LAYER_1
 62
    39
  6
CONTINUOUS
 66
     1
 40
0.004390
 41
0.004390
  0
VERTEX
  8
LAYER_1
 62
    39
  6
CONTINUOUS
 10
0.186996
 20
0.393496
  0
VERTEX
  8
LAYER_1
 62
    39
  6
CONTINUOUS
 10
0.186996
 20
0.403496
  0
VERTEX
  8
LAYER_1
 62
    39
  6
CONTINUOUS
 10
0.217996
 20
0.403496
  0
VERTEX
  8
LAYER_1
 62
    39
  6
CONTINUOUS
 10
0.217996
 20
0.372496
  0
VERTEX
  8
LAYER_1
 62
    39
  6
CONTINUOUS
 10
0.207996
 20
0.362496
  0
VERTEX
  8
LAYER_1
 62
    39
  6
CONTINUOUS
 10
0.167996
 20
0.362496
  0
VERTEX
  8
LAYER_1
 62
    39
  6
CONTINUOUS
 10
0.157996
 20
0.372496
  0
VERTEX
  8
LAYER_1
 62
    39
  6
CONTINUOUS
 10
0.157996
 20
0.403496
  0
SEQEND
  8
0
  0
POLYLINE
  8
LAYER_1
 62
    39
  6
CONTINUOUS
 66
     1
 40
0.004390
 41
0.004390
  0
VERTEX
  8
LAYER_1
 62
    39
  6
CONTINUOUS
 10
0.167996
 20
0.422496
  0
VERTEX
  8
LAYER_1
 62
    39
  6
CONTINUOUS
 10
0.157996
 20
0.432496
  0
VERTEX
  8
LAYER_1
 62
    39
  6
CONTINUOUS
 10
0.157996
 20
0.453496
  0
VERTEX
  8
LAYER_1
 62
    39
  6
CONTINUOUS
 10
0.167996
 20
0.463496
  0
VERTEX
  8
LAYER_1
 62
    39
  6
CONTINUOUS
 10
0.176996
 20
0.463496
  0
VERTEX
  8
LAYER_1
 62
    39
  6
CONTINUOUS
 10
0.186996
 20
0.453496
  0
VERTEX
  8
LAYER_1
 62
    39
  6
CONTINUOUS
 10
0.186996
 20
0.432496
  0
VERTEX
  8
LAYER_1
 62
    39
  6
CONTINUOUS
 10
0.196996
 20
0.422496
  0
VERTEX
  8
LAYER_1
 62
    39
  6
CONTINUOUS
 10
0.217996
 20
0.422496
  0
VERTEX
  8
LAYER_1
 62
    39
  6
CONTINUOUS
 10
0.217996
 20
0.463496
  0
SEQEND
  8
0
  0
POLYLINE
  8
LAYER_1
 62
    39
  6
CONTINUOUS
 66
     1
 40
0.004390
 41
0.004390
  0
VERTEX
  8
LAYER_1
 62
    39
  6
CONTINUOUS
 10
-0.488004
 20
0.362496
  0
VERTEX
  8
LAYER_1
 62
    39
  6
CONTINUOUS
 10
-0.488004
 20
0.367496
  0
VERTEX
  8
LAYER_1
 62
    39
  6
CONTINUOUS
 10
-0.489004
 20
0.372496
  0
VERTEX
  8
LAYER_1
 62
    39
  6
CONTINUOUS
 10
-0.490004
 20
0.377496
  0
VERTEX
  8
LAYER_1
 62
    39
  6
CONTINUOUS
 10
-0.491004
 20
0.382496
  0
VERTEX
  8
LAYER_1
 62
    39
  6
CONTINUOUS
 10
-0.494004
 20
0.386496
  0
VERTEX
  8
LAYER_1
 62
    39
  6
CONTINUOUS
 10
-0.496004
 20
0.390496
  0
VERTEX
  8
LAYER_1
 62
    39
  6
CONTINUOUS
 10
-0.499004
 20
0.394496
  0
VERTEX
  8
LAYER_1
 62
    39
  6
CONTINUOUS
 10
-0.502004
 20
0.398496
  0
VERTEX
  8
LAYER_1
 62
    39
  6
CONTINUOUS
 10
-0.506004
 20
0.401496
  0
VERTEX
  8
LAYER_1
 62
    39
  6
CONTINUOUS
 10
-0.510004
 20
0.404496
  0
VERTEX
  8
LAYER_1
 62
    39
  6
CONTINUOUS
 10
-0.513004
 20
0.407496
  0
VERTEX
  8
LAYER_1
 62
    39
  6
CONTINUOUS
 10
-0.518004
 20
0.409496
  0
VERTEX
  8
LAYER_1
 62
    39
  6
CONTINUOUS
 10
-0.523004
 20
0.411496
  0
VERTEX
  8
LAYER_1
 62
    39
  6
CONTINUOUS
 10
-0.527004
 20
0.412496
  0
VERTEX
  8
LAYER_1
 62
    39
  6
CONTINUOUS
 10
-0.532004
 20
0.413496
  0
VERTEX
  8
LAYER_1
 62
    39
  6
CONTINUOUS
 10
-0.537004
 20
0.413496
  0
SEQEND
  8
0
  0
POLYLINE
  8
LAYER_1
 62
    39
  6
CONTINUOUS
 66
     1
 40
0.004390
 41
0.004390
  0
VERTEX
  8
LAYER_1
 62
    39
  6
CONTINUOUS
 10
-0.537004
 20
0.312496
  0
VERTEX
  8
LAYER_1
 62
    39
  6
CONTINUOUS
 10
-0.532004
 20
0.313496
  0
VERTEX
  8
LAYER_1
 62
    39
  6
CONTINUOUS
 10
-0.527004
 20
0.313496
  0
VERTEX
  8
LAYER_1
 62
    39
  6
CONTINUOUS
 10
-0.523004
 20
0.315496
  0
VERTEX
  8
LAYER_1
 62
    39
  6
CONTINUOUS
 10
-0.518004
 20
0.316496
  0
VERTEX
  8
LAYER_1
 62
    39
  6
CONTINUOUS
 10
-0.513004
 20
0.318496
  0
VERTEX
  8
LAYER_1
 62
    39
  6
CONTINUOUS
 10
-0.510004
 20
0.321496
  0
VERTEX
  8
LAYER_1
 62
    39
  6
CONTINUOUS
 10
-0.506004
 20
0.324496
  0
VERTEX
  8
LAYER_1
 62
    39
  6
CONTINUOUS
 10
-0.502004
 20
0.327496
  0
VERTEX
  8
LAYER_1
 62
    39
  6
CONTINUOUS
 10
-0.499004
 20
0.331496
  0
VERTEX
  8
LAYER_1
 62
    39
  6
CONTINUOUS
 10
-0.496004
 20
0.335496
  0
VERTEX
  8
LAYER_1
 62
    39
  6
CONTINUOUS
 10
-0.494004
 20
0.339496
  0
VERTEX
  8
LAYER_1
 62
    39
  6
CONTINUOUS
 10
-0.491004
 20
0.344496
  0
VERTEX
  8
LAYER_1
 62
    39
  6
CONTINUOUS
 10
-0.490004
 20
0.348496
  0
VERTEX
  8
LAYER_1
 62
    39
  6
CONTINUOUS
 10
-0.489004
 20
0.352496
  0
VERTEX
  8
LAYER_1
 62
    39
  6
CONTINUOUS
 10
-0.488004
 20
0.357496
  0
VERTEX
  8
LAYER_1
 62
    39
  6
CONTINUOUS
 10
-0.488004
 20
0.362496
  0
SEQEND
  8
0
  0
POLYLINE
  8
LAYER_1
 62
    39
  6
CONTINUOUS
 66
     1
 40
0.004390
 41
0.004390
  0
VERTEX
  8
LAYER_1
 62
    39
  6
CONTINUOUS
 10
-0.642004
 20
0.333496
  0
VERTEX
  8
LAYER_1
 62
    39
  6
CONTINUOUS
 10
-0.642004
 20
0.393496
  0
VERTEX
  8
LAYER_1
 62
    39
  6
CONTINUOUS
 10
-0.613004
 20
0.393496
  0
VERTEX
  8
LAYER_1
 62
    39
  6
CONTINUOUS
 10
-0.602004
 20
0.383496
  0
VERTEX
  8
LAYER_1
 62
    39
  6
CONTINUOUS
 10
-0.602004
 20
0.372496
  0
VERTEX
  8
LAYER_1
 62
    39
  6
CONTINUOUS
 10
-0.613004
 20
0.362496
  0
VERTEX
  8
LAYER_1
 62
    39
  6
CONTINUOUS
 10
-0.642004
 20
0.362496
  0
VERTEX
  8
LAYER_1
 62
    39
  6
CONTINUOUS
 10
-0.633004
 20
0.362496
  0
VERTEX
  8
LAYER_1
 62
    39
  6
CONTINUOUS
 10
-0.602004
 20
0.333496
  0
SEQEND
  8
0
  0
POLYLINE
  8
LAYER_1
 62
    39
  6
CONTINUOUS
 66
     1
 40
0.004390
 41
0.004390
  0
VERTEX
  8
LAYER_1
 62
    39
  6
CONTINUOUS
 10
-0.563004
 20
0.333496
  0
VERTEX
  8
LAYER_1
 62
    39
  6
CONTINUOUS
 10
-0.573004
 20
0.333496
  0
VERTEX
  8
LAYER_1
 62
    39
  6
CONTINUOUS
 10
-0.563004
 20
0.333496
  0
VERTEX
  8
LAYER_1
 62
    39
  6
CONTINUOUS
 10
-0.542004
 20
0.352496
  0
VERTEX
  8
LAYER_1
 62
    39
  6
CONTINUOUS
 10
-0.542004
 20
0.383496
  0
VERTEX
  8
LAYER_1
 62
    39
  6
CONTINUOUS
 10
-0.553004
 20
0.393496
  0
VERTEX
  8
LAYER_1
 62
    39
  6
CONTINUOUS
 10
-0.573004
 20
0.393496
  0
VERTEX
  8
LAYER_1
 62
    39
  6
CONTINUOUS
 10
-0.582004
 20
0.383496
  0
VERTEX
  8
LAYER_1
 62
    39
  6
CONTINUOUS
 10
-0.582004
 20
0.372496
  0
VERTEX
  8
LAYER_1
 62
    39
  6
CONTINUOUS
 10
-0.573004
 20
0.362496
  0
VERTEX
  8
LAYER_1
 62
    39
  6
CONTINUOUS
 10
-0.542004
 20
0.362496
  0
SEQEND
  8
0
  0
POLYLINE
  8
LAYER_1
 62
    39
  6
CONTINUOUS
 66
     1
 40
0.004390
 41
0.004390
  0
VERTEX
  8
LAYER_1
 62
    39
  6
CONTINUOUS
 10
-0.587004
 20
0.242496
  0
VERTEX
  8
LAYER_1
 62
    39
  6
CONTINUOUS
 10
-0.597004
 20
0.232496
  0
VERTEX
  8
LAYER_1
 62
    39
  6
CONTINUOUS
 10
-0.618004
 20
0.232496
  0
VERTEX
  8
LAYER_1
 62
    39
  6
CONTINUOUS
 10
-0.628004
 20
0.242496
  0
VERTEX
  8
LAYER_1
 62
    39
  6
CONTINUOUS
 10
-0.628004
 20
0.283496
  0
VERTEX
  8
LAYER_1
 62
    39
  6
CONTINUOUS
 10
-0.618004
 20
0.292496
  0
VERTEX
  8
LAYER_1
 62
    39
  6
CONTINUOUS
 10
-0.597004
 20
0.292496
  0
VERTEX
  8
LAYER_1
 62
    39
  6
CONTINUOUS
 10
-0.587004
 20
0.283496
  0
SEQEND
  8
0
  0
POLYLINE
  8
LAYER_1
 62
    39
  6
CONTINUOUS
 66
     1
 40
0.004390
 41
0.004390
  0
VERTEX
  8
LAYER_1
 62
    39
  6
CONTINUOUS
 10
-0.568004
 20
0.242496
  0
VERTEX
  8
LAYER_1
 62
    39
  6
CONTINUOUS
 10
-0.558004
 20
0.232496
  0
VERTEX
  8
LAYER_1
 62
    39
  6
CONTINUOUS
 10
-0.537004
 20
0.232496
  0
VERTEX
  8
LAYER_1
 62
    39
  6
CONTINUOUS
 10
-0.527004
 20
0.242496
  0
VERTEX
  8
LAYER_1
 62
    39
  6
CONTINUOUS
 10
-0.527004
 20
0.263496
  0
VERTEX
  8
LAYER_1
 62
    39
  6
CONTINUOUS
 10
-0.537004
 20
0.273496
  0
VERTEX
  8
LAYER_1
 62
    39
  6
CONTINUOUS
 10
-0.568004
 20
0.273496
  0
VERTEX
  8
LAYER_1
 62
    39
  6
CONTINUOUS
 10
-0.568004
 20
0.292496
  0
VERTEX
  8
LAYER_1
 62
    39
  6
CONTINUOUS
 10
-0.527004
 20
0.292496
  0
SEQEND
  8
0
  0
POLYLINE
  8
LAYER_1
 62
    39
  6
CONTINUOUS
 66
     1
 40
0.004390
 41
0.004390
 70
     1
  0
VERTEX
  8
LAYER_1
 62
    39
  6
CONTINUOUS
 10
-0.537004
 20
0.088496
  0
VERTEX
  8
LAYER_1
 62
    39
  6
CONTINUOUS
 10
-0.538004
 20
0.093496
  0
VERTEX
  8
LAYER_1
 62
    39
  6
CONTINUOUS
 10
-0.538004
 20
0.098496
  0
VERTEX
  8
LAYER_1
 62
    39
  6
CONTINUOUS
 10
-0.540004
 20
0.102496
  0
VERTEX
  8
LAYER_1
 62
    39
  6
CONTINUOUS
 10
-0.541004
 20
0.107496
  0
VERTEX
  8
LAYER_1
 62
    39
  6
CONTINUOUS
 10
-0.544004
 20
0.111496
  0
VERTEX
  8
LAYER_1
 62
    39
  6
CONTINUOUS
 10
-0.546004
 20
0.115496
  0
VERTEX
  8
LAYER_1
 62
    39
  6
CONTINUOUS
 10
-0.549004
 20
0.119496
  0
VERTEX
  8
LAYER_1
 62
    39
  6
CONTINUOUS
 10
-0.553004
 20
0.123496
  0
VERTEX
  8
LAYER_1
 62
    39
  6
CONTINUOUS
 10
-0.557004
 20
0.127496
  0
VERTEX
  8
LAYER_1
 62
    39
  6
CONTINUOUS
 10
-0.561004
 20
0.129496
  0
VERTEX
  8
LAYER_1
 62
    39
  6
CONTINUOUS
 10
-0.565004
 20
0.132496
  0
VERTEX
  8
LAYER_1
 62
    39
  6
CONTINUOUS
 10
-0.570004
 20
0.134496
  0
VERTEX
  8
LAYER_1
 62
    39
  6
CONTINUOUS
 10
-0.574004
 20
0.136496
  0
VERTEX
  8
LAYER_1
 62
    39
  6
CONTINUOUS
 10
-0.578004
 20
0.137496
  0
VERTEX
  8
LAYER_1
 62
    39
  6
CONTINUOUS
 10
-0.583004
 20
0.137496
  0
VERTEX
  8
LAYER_1
 62
    39
  6
CONTINUOUS
 10
-0.588004
 20
0.138496
  0
VERTEX
  8
LAYER_1
 62
    39
  6
CONTINUOUS
 10
-0.594004
 20
0.137496
  0
VERTEX
  8
LAYER_1
 62
    39
  6
CONTINUOUS
 10
-0.599004
 20
0.136496
  0
VERTEX
  8
LAYER_1
 62
    39
  6
CONTINUOUS
 10
-0.603004
 20
0.135496
  0
VERTEX
  8
LAYER_1
 62
    39
  6
CONTINUOUS
 10
-0.608004
 20
0.133496
  0
VERTEX
  8
LAYER_1
 62
    39
  6
CONTINUOUS
 10
-0.613004
 20
0.131496
  0
VERTEX
  8
LAYER_1
 62
    39
  6
CONTINUOUS
 10
-0.617004
 20
0.128496
  0
VERTEX
  8
LAYER_1
 62
    39
  6
CONTINUOUS
 10
-0.621004
 20
0.125496
  0
VERTEX
  8
LAYER_1
 62
    39
  6
CONTINUOUS
 10
-0.624004
 20
0.121496
  0
VERTEX
  8
LAYER_1
 62
    39
  6
CONTINUOUS
 10
-0.628004
 20
0.117496
  0
VERTEX
  8
LAYER_1
 62
    39
  6
CONTINUOUS
 10
-0.631004
 20
0.113496
  0
VERTEX
  8
LAYER_1
 62
    39
  6
CONTINUOUS
 10
-0.633004
 20
0.109496
  0
VERTEX
  8
LAYER_1
 62
    39
  6
CONTINUOUS
 10
-0.635004
 20
0.104496
  0
VERTEX
  8
LAYER_1
 62
    39
  6
CONTINUOUS
 10
-0.636004
 20
0.100496
  0
VERTEX
  8
LAYER_1
 62
    39
  6
CONTINUOUS
 10
-0.637004
 20
0.095496
  0
VERTEX
  8
LAYER_1
 62
    39
  6
CONTINUOUS
 10
-0.637004
 20
0.090496
  0
VERTEX
  8
LAYER_1
 62
    39
  6
CONTINUOUS
 10
-0.637004
 20
0.085496
  0
VERTEX
  8
LAYER_1
 62
    39
  6
CONTINUOUS
 10
-0.637004
 20
0.080496
  0
VERTEX
  8
LAYER_1
 62
    39
  6
CONTINUOUS
 10
-0.636004
 20
0.075496
  0
VERTEX
  8
LAYER_1
 62
    39
  6
CONTINUOUS
 10
-0.635004
 20
0.070496
  0
VERTEX
  8
LAYER_1
 62
    39
  6
CONTINUOUS
 10
-0.633004
 20
0.066496
  0
VERTEX
  8
LAYER_1
 62
    39
  6
CONTINUOUS
 10
-0.631004
 20
0.061496
  0
VERTEX
  8
LAYER_1
 62
    39
  6
CONTINUOUS
 10
-0.628004
 20
0.057496
  0
VERTEX
  8
LAYER_1
 62
    39
  6
CONTINUOUS
 10
-0.624004
 20
0.053496
  0
VERTEX
  8
LAYER_1
 62
    39
  6
CONTINUOUS
 10
-0.621004
 20
0.050496
  0
VERTEX
  8
LAYER_1
 62
    39
  6
CONTINUOUS
 10
-0.617004
 20
0.047496
  0
VERTEX
  8
LAYER_1
 62
    39
  6
CONTINUOUS
 10
-0.613004
 20
0.044496
  0
VERTEX
  8
LAYER_1
 62
    39
  6
CONTINUOUS
 10
-0.608004
 20
0.041496
  0
VERTEX
  8
LAYER_1
 62
    39
  6
CONTINUOUS
 10
-0.603004
 20
0.040496
  0
VERTEX
  8
LAYER_1
 62
    39
  6
CONTINUOUS
 10
-0.599004
 20
0.038496
  0
VERTEX
  8
LAYER_1
 62
    39
  6
CONTINUOUS
 10
-0.594004
 20
0.038496
  0
VERTEX
  8
LAYER_1
 62
    39
  6
CONTINUOUS
 10
-0.588004
 20
0.038496
  0
VERTEX
  8
LAYER_1
 62
    39
  6
CONTINUOUS
 10
-0.583004
 20
0.038496
  0
VERTEX
  8
LAYER_1
 62
    39
  6
CONTINUOUS
 10
-0.578004
 20
0.038496
  0
VERTEX
  8
LAYER_1
 62
    39
  6
CONTINUOUS
 10
-0.574004
 20
0.039496
  0
VERTEX
  8
LAYER_1
 62
    39
  6
CONTINUOUS
 10
-0.570004
 20
0.041496
  0
VERTEX
  8
LAYER_1
 62
    39
  6
CONTINUOUS
 10
-0.565004
 20
0.043496
  0
VERTEX
  8
LAYER_1
 62
    39
  6
CONTINUOUS
 10
-0.561004
 20
0.045496
  0
VERTEX
  8
LAYER_1
 62
    39
  6
CONTINUOUS
 10
-0.557004
 20
0.048496
  0
VERTEX
  8
LAYER_1
 62
    39
  6
CONTINUOUS
 10
-0.553004
 20
0.051496
  0
VERTEX
  8
LAYER_1
 62
    39
  6
CONTINUOUS
 10
-0.549004
 20
0.055496
  0
VERTEX
  8
LAYER_1
 62
    39
  6
CONTINUOUS
 10
-0.546004
 20
0.059496
  0
VERTEX
  8
LAYER_1
 62
    39
  6
CONTINUOUS
 10
-0.544004
 20
0.064496
  0
VERTEX
  8
LAYER_1
 62
    39
  6
CONTINUOUS
 10
-0.541004
 20
0.068496
  0
VERTEX
  8
LAYER_1
 62
    39
  6
CONTINUOUS
 10
-0.540004
 20
0.073496
  0
VERTEX
  8
LAYER_1
 62
    39
  6
CONTINUOUS
 10
-0.538004
 20
0.078496
  0
VERTEX
  8
LAYER_1
 62
    39
  6
CONTINUOUS
 10
-0.538004
 20
0.083496
  0
SEQEND
  8
0
  0
POLYLINE
  8
LAYER_1
 62
    39
  6
CONTINUOUS
 66
     1
 40
0.004390
 41
0.004390
  0
VERTEX
  8
LAYER_1
 62
    39
  6
CONTINUOUS
 10
-0.618004
 20
-0.101504
  0
VERTEX
  8
LAYER_1
 62
    39
  6
CONTINUOUS
 10
-0.618004
 20
-0.142504
  0
VERTEX
  8
LAYER_1
 62
    39
  6
CONTINUOUS
 10
-0.618004
 20
-0.101504
  0
VERTEX
  8
LAYER_1
 62
    39
  6
CONTINUOUS
 10
-0.618004
 20
-0.122504
  0
VERTEX
  8
LAYER_1
 62
    39
  6
CONTINUOUS
 10
-0.558004
 20
-0.122504
  0
SEQEND
  8
0
  0
POLYLINE
  8
LAYER_1
 62
    39
  6
CONTINUOUS
 66
     1
 40
0.004390
 41
0.004390
  0
VERTEX
  8
LAYER_1
 62
    39
  6
CONTINUOUS
 10
-0.618004
 20
-0.072504
  0
VERTEX
  8
LAYER_1
 62
    39
  6
CONTINUOUS
 10
-0.608004
 20
-0.082504
  0
VERTEX
  8
LAYER_1
 62
    39
  6
CONTINUOUS
 10
-0.618004
 20
-0.072504
  0
VERTEX
  8
LAYER_1
 62
    39
  6
CONTINUOUS
 10
-0.558004
 20
-0.072504
  0
VERTEX
  8
LAYER_1
 62
    39
  6
CONTINUOUS
 10
-0.558004
 20
-0.082504
  0
VERTEX
  8
LAYER_1
 62
    39
  6
CONTINUOUS
 10
-0.558004
 20
-0.062504
  0
SEQEND
  8
0
  0
POLYLINE
  8
LAYER_1
 62
    39
  6
CONTINUOUS
 66
     1
 40
0.004390
 41
0.004390
  0
VERTEX
  8
LAYER_1
 62
    39
  6
CONTINUOUS
 10
-0.587004
 20
-0.012504
  0
VERTEX
  8
LAYER_1
 62
    39
  6
CONTINUOUS
 10
-0.587004
 20
-0.041504
  0
VERTEX
  8
LAYER_1
 62
    39
  6
CONTINUOUS
 10
-0.587004
 20
-0.012504
  0
VERTEX
  8
LAYER_1
 62
    39
  6
CONTINUOUS
 10
-0.577004
 20
-0.002504
  0
VERTEX
  8
LAYER_1
 62
    39
  6
CONTINUOUS
 10
-0.568004
 20
-0.002504
  0
VERTEX
  8
LAYER_1
 62
    39
  6
CONTINUOUS
 10
-0.558004
 20
-0.012504
  0
VERTEX
  8
LAYER_1
 62
    39
  6
CONTINUOUS
 10
-0.558004
 20
-0.031504
  0
VERTEX
  8
LAYER_1
 62
    39
  6
CONTINUOUS
 10
-0.568004
 20
-0.041504
  0
VERTEX
  8
LAYER_1
 62
    39
  6
CONTINUOUS
 10
-0.597004
 20
-0.041504
  0
VERTEX
  8
LAYER_1
 62
    39
  6
CONTINUOUS
 10
-0.618004
 20
-0.022504
  0
VERTEX
  8
LAYER_1
 62
    39
  6
CONTINUOUS
 10
-0.618004
 20
-0.012504
  0
SEQEND
  8
0
  0
POLYLINE
  8
LAYER_1
 62
    39
  6
CONTINUOUS
 66
     1
 40
0.004390
 41
0.004390
  0
VERTEX
  8
LAYER_1
 62
    39
  6
CONTINUOUS
 10
-0.712004
 20
-0.236504
  0
VERTEX
  8
LAYER_1
 62
    39
  6
CONTINUOUS
 10
-0.962004
 20
-0.236504
  0
VERTEX
  8
LAYER_1
 62
    39
  6
CONTINUOUS
 10
-0.962004
 20
1.487496
  0
SEQEND
  8
0
  0
POLYLINE
  8
LAYER_1
 62
    39
  6
CONTINUOUS
 66
     1
 40
0.004390
 41
0.004390
 70
     1
  0
VERTEX
  8
LAYER_1
 62
    39
  6
CONTINUOUS
 10
-0.262004
 20
1.312496
  0
VERTEX
  8
LAYER_1
 62
    39
  6
CONTINUOUS
 10
-0.262004
 20
1.317496
  0
VERTEX
  8
LAYER_1
 62
    39
  6
CONTINUOUS
 10
-0.263004
 20
1.323496
  0
VERTEX
  8
LAYER_1
 62
    39
  6
CONTINUOUS
 10
-0.263004
 20
1.328496
  0
VERTEX
  8
LAYER_1
 62
    39
  6
CONTINUOUS
 10
-0.264004
 20
1.333496
  0
VERTEX
  8
LAYER_1
 62
    39
  6
CONTINUOUS
 10
-0.265004
 20
1.337496
  0
VERTEX
  8
LAYER_1
 62
    39
  6
CONTINUOUS
 10
-0.267004
 20
1.342496
  0
VERTEX
  8
LAYER_1
 62
    39
  6
CONTINUOUS
 10
-0.268004
 20
1.347496
  0
VERTEX
  8
LAYER_1
 62
    39
  6
CONTINUOUS
 10
-0.270004
 20
1.351496
  0
VERTEX
  8
LAYER_1
 62
    39
  6
CONTINUOUS
 10
-0.272004
 20
1.355496
  0
VERTEX
  8
LAYER_1
 62
    39
  6
CONTINUOUS
 10
-0.274004
 20
1.360496
  0
VERTEX
  8
LAYER_1
 62
    39
  6
CONTINUOUS
 10
-0.277004
 20
1.364496
  0
VERTEX
  8
LAYER_1
 62
    39
  6
CONTINUOUS
 10
-0.280004
 20
1.369496
  0
VERTEX
  8
LAYER_1
 62
    39
  6
CONTINUOUS
 10
-0.283004
 20
1.373496
  0
VERTEX
  8
LAYER_1
 62
    39
  6
CONTINUOUS
 10
-0.286004
 20
1.377496
  0
VERTEX
  8
LAYER_1
 62
    39
  6
CONTINUOUS
 10
-0.289004
 20
1.381496
  0
VERTEX
  8
LAYER_1
 62
    39
  6
CONTINUOUS
 10
-0.293004
 20
1.384496
  0
VERTEX
  8
LAYER_1
 62
    39
  6
CONTINUOUS
 10
-0.296004
 20
1.388496
  0
VERTEX
  8
LAYER_1
 62
    39
  6
CONTINUOUS
 10
-0.300004
 20
1.391496
  0
VERTEX
  8
LAYER_1
 62
    39
  6
CONTINUOUS
 10
-0.304004
 20
1.394496
  0
VERTEX
  8
LAYER_1
 62
    39
  6
CONTINUOUS
 10
-0.308004
 20
1.397496
  0
VERTEX
  8
LAYER_1
 62
    39
  6
CONTINUOUS
 10
-0.313004
 20
1.399496
  0
VERTEX
  8
LAYER_1
 62
    39
  6
CONTINUOUS
 10
-0.317004
 20
1.402496
  0
VERTEX
  8
LAYER_1
 62
    39
  6
CONTINUOUS
 10
-0.322004
 20
1.404496
  0
VERTEX
  8
LAYER_1
 62
    39
  6
CONTINUOUS
 10
-0.325004
 20
1.406496
  0
VERTEX
  8
LAYER_1
 62
    39
  6
CONTINUOUS
 10
-0.330004
 20
1.408496
  0
VERTEX
  8
LAYER_1
 62
    39
  6
CONTINUOUS
 10
-0.335004
 20
1.409496
  0
VERTEX
  8
LAYER_1
 62
    39
  6
CONTINUOUS
 10
-0.340004
 20
1.410496
  0
VERTEX
  8
LAYER_1
 62
    39
  6
CONTINUOUS
 10
-0.345004
 20
1.411496
  0
VERTEX
  8
LAYER_1
 62
    39
  6
CONTINUOUS
 10
-0.350004
 20
1.412496
  0
VERTEX
  8
LAYER_1
 62
    39
  6
CONTINUOUS
 10
-0.355004
 20
1.413496
  0
VERTEX
  8
LAYER_1
 62
    39
  6
CONTINUOUS
 10
-0.360004
 20
1.413496
  0
VERTEX
  8
LAYER_1
 62
    39
  6
CONTINUOUS
 10
-0.365004
 20
1.413496
  0
VERTEX
  8
LAYER_1
 62
    39
  6
CONTINUOUS
 10
-0.370004
 20
1.413496
  0
VERTEX
  8
LAYER_1
 62
    39
  6
CONTINUOUS
 10
-0.375004
 20
1.412496
  0
VERTEX
  8
LAYER_1
 62
    39
  6
CONTINUOUS
 10
-0.380004
 20
1.411496
  0
VERTEX
  8
LAYER_1
 62
    39
  6
CONTINUOUS
 10
-0.385004
 20
1.410496
  0
VERTEX
  8
LAYER_1
 62
    39
  6
CONTINUOUS
 10
-0.389004
 20
1.409496
  0
VERTEX
  8
LAYER_1
 62
    39
  6
CONTINUOUS
 10
-0.394004
 20
1.408496
  0
VERTEX
  8
LAYER_1
 62
    39
  6
CONTINUOUS
 10
-0.399004
 20
1.406496
  0
VERTEX
  8
LAYER_1
 62
    39
  6
CONTINUOUS
 10
-0.403004
 20
1.404496
  0
VERTEX
  8
LAYER_1
 62
    39
  6
CONTINUOUS
 10
-0.408004
 20
1.402496
  0
VERTEX
  8
LAYER_1
 62
    39
  6
CONTINUOUS
 10
-0.412004
 20
1.399496
  0
VERTEX
  8
LAYER_1
 62
    39
  6
CONTINUOUS
 10
-0.417004
 20
1.397496
  0
VERTEX
  8
LAYER_1
 62
    39
  6
CONTINUOUS
 10
-0.421004
 20
1.394496
  0
VERTEX
  8
LAYER_1
 62
    39
  6
CONTINUOUS
 10
-0.425004
 20
1.391496
  0
VERTEX
  8
LAYER_1
 62
    39
  6
CONTINUOUS
 10
-0.429004
 20
1.388496
  0
VERTEX
  8
LAYER_1
 62
    39
  6
CONTINUOUS
 10
-0.433004
 20
1.384496
  0
VERTEX
  8
LAYER_1
 62
    39
  6
CONTINUOUS
 10
-0.436004
 20
1.381496
  0
VERTEX
  8
LAYER_1
 62
    39
  6
CONTINUOUS
 10
-0.439004
 20
1.377496
  0
VERTEX
  8
LAYER_1
 62
    39
  6
CONTINUOUS
 10
-0.443004
 20
1.373496
  0
VERTEX
  8
LAYER_1
 62
    39
  6
CONTINUOUS
 10
-0.446004
 20
1.369496
  0
VERTEX
  8
LAYER_1
 62
    39
  6
CONTINUOUS
 10
-0.448004
 20
1.364496
  0
VERTEX
  8
LAYER_1
 62
    39
  6
CONTINUOUS
 10
-0.450004
 20
1.360496
  0
VERTEX
  8
LAYER_1
 62
    39
  6
CONTINUOUS
 10
-0.452004
 20
1.355496
  0
VERTEX
  8
LAYER_1
 62
    39
  6
CONTINUOUS
 10
-0.454004
 20
1.351496
  0
VERTEX
  8
LAYER_1
 62
    39
  6
CONTINUOUS
 10
-0.456004
 20
1.347496
  0
VERTEX
  8
LAYER_1
 62
    39
  6
CONTINUOUS
 10
-0.458004
 20
1.342496
  0
VERTEX
  8
LAYER_1
 62
    39
  6
CONTINUOUS
 10
-0.459004
 20
1.337496
  0
VERTEX
  8
LAYER_1
 62
    39
  6
CONTINUOUS
 10
-0.460004
 20
1.333496
  0
VERTEX
  8
LAYER_1
 62
    39
  6
CONTINUOUS
 10
-0.461004
 20
1.328496
  0
VERTEX
  8
LAYER_1
 62
    39
  6
CONTINUOUS
 10
-0.462004
 20
1.323496
  0
VERTEX
  8
LAYER_1
 62
    39
  6
CONTINUOUS
 10
-0.462004
 20
1.317496
  0
VERTEX
  8
LAYER_1
 62
    39
  6
CONTINUOUS
 10
-0.462004
 20
1.312496
  0
VERTEX
  8
LAYER_1
 62
    39
  6
CONTINUOUS
 10
-0.462004
 20
1.307496
  0
VERTEX
  8
LAYER_1
 62
    39
  6
CONTINUOUS
 10
-0.462004
 20
1.302496
  0
VERTEX
  8
LAYER_1
 62
    39
  6
CONTINUOUS
 10
-0.461004
 20
1.297496
  0
VERTEX
  8
LAYER_1
 62
    39
  6
CONTINUOUS
 10
-0.460004
 20
1.292496
  0
VERTEX
  8
LAYER_1
 62
    39
  6
CONTINUOUS
 10
-0.459004
 20
1.288496
  0
VERTEX
  8
LAYER_1
 62
    39
  6
CONTINUOUS
 10
-0.458004
 20
1.283496
  0
VERTEX
  8
LAYER_1
 62
    39
  6
CONTINUOUS
 10
-0.456004
 20
1.279496
  0
VERTEX
  8
LAYER_1
 62
    39
  6
CONTINUOUS
 10
-0.454004
 20
1.274496
  0
VERTEX
  8
LAYER_1
 62
    39
  6
CONTINUOUS
 10
-0.452004
 20
1.269496
  0
VERTEX
  8
LAYER_1
 62
    39
  6
CONTINUOUS
 10
-0.450004
 20
1.265496
  0
VERTEX
  8
LAYER_1
 62
    39
  6
CONTINUOUS
 10
-0.448004
 20
1.260496
  0
VERTEX
  8
LAYER_1
 62
    39
  6
CONTINUOUS
 10
-0.446004
 20
1.256496
  0
VERTEX
  8
LAYER_1
 62
    39
  6
CONTINUOUS
 10
-0.443004
 20
1.252496
  0
VERTEX
  8
LAYER_1
 62
    39
  6
CONTINUOUS
 10
-0.439004
 20
1.248496
  0
VERTEX
  8
LAYER_1
 62
    39
  6
CONTINUOUS
 10
-0.436004
 20
1.244496
  0
VERTEX
  8
LAYER_1
 62
    39
  6
CONTINUOUS
 10
-0.433004
 20
1.241496
  0
VERTEX
  8
LAYER_1
 62
    39
  6
CONTINUOUS
 10
-0.429004
 20
1.237496
  0
VERTEX
  8
LAYER_1
 62
    39
  6
CONTINUOUS
 10
-0.425004
 20
1.234496
  0
VERTEX
  8
LAYER_1
 62
    39
  6
CONTINUOUS
 10
-0.421004
 20
1.231496
  0
VERTEX
  8
LAYER_1
 62
    39
  6
CONTINUOUS
 10
-0.417004
 20
1.228496
  0
VERTEX
  8
LAYER_1
 62
    39
  6
CONTINUOUS
 10
-0.412004
 20
1.225496
  0
VERTEX
  8
LAYER_1
 62
    39
  6
CONTINUOUS
 10
-0.408004
 20
1.224496
  0
VERTEX
  8
LAYER_1
 62
    39
  6
CONTINUOUS
 10
-0.403004
 20
1.222496
  0
VERTEX
  8
LAYER_1
 62
    39
  6
CONTINUOUS
 10
-0.399004
 20
1.220496
  0
VERTEX
  8
LAYER_1
 62
    39
  6
CONTINUOUS
 10
-0.394004
 20
1.218496
  0
VERTEX
  8
LAYER_1
 62
    39
  6
CONTINUOUS
 10
-0.389004
 20
1.217496
  0
VERTEX
  8
LAYER_1
 62
    39
  6
CONTINUOUS
 10
-0.385004
 20
1.215496
  0
VERTEX
  8
LAYER_1
 62
    39
  6
CONTINUOUS
 10
-0.380004
 20
1.214496
  0
VERTEX
  8
LAYER_1
 62
    39
  6
CONTINUOUS
 10
-0.375004
 20
1.214496
  0
VERTEX
  8
LAYER_1
 62
    39
  6
CONTINUOUS
 10
-0.370004
 20
1.213496
  0
VERTEX
  8
LAYER_1
 62
    39
  6
CONTINUOUS
 10
-0.365004
 20
1.213496
  0
VERTEX
  8
LAYER_1
 62
    39
  6
CONTINUOUS
 10
-0.360004
 20
1.213496
  0
VERTEX
  8
LAYER_1
 62
    39
  6
CONTINUOUS
 10
-0.355004
 20
1.213496
  0
VERTEX
  8
LAYER_1
 62
    39
  6
CONTINUOUS
 10
-0.350004
 20
1.214496
  0
VERTEX
  8
LAYER_1
 62
    39
  6
CONTINUOUS
 10
-0.345004
 20
1.214496
  0
VERTEX
  8
LAYER_1
 62
    39
  6
CONTINUOUS
 10
-0.340004
 20
1.215496
  0
VERTEX
  8
LAYER_1
 62
    39
  6
CONTINUOUS
 10
-0.335004
 20
1.217496
  0
VERTEX
  8
LAYER_1
 62
    39
  6
CONTINUOUS
 10
-0.330004
 20
1.218496
  0
VERTEX
  8
LAYER_1
 62
    39
  6
CONTINUOUS
 10
-0.325004
 20
1.220496
  0
VERTEX
  8
LAYER_1
 62
    39
  6
CONTINUOUS
 10
-0.322004
 20
1.222496
  0
VERTEX
  8
LAYER_1
 62
    39
  6
CONTINUOUS
 10
-0.317004
 20
1.224496
  0
VERTEX
  8
LAYER_1
 62
    39
  6
CONTINUOUS
 10
-0.313004
 20
1.225496
  0
VERTEX
  8
LAYER_1
 62
    39
  6
CONTINUOUS
 10
-0.308004
 20
1.228496
  0
VERTEX
  8
LAYER_1
 62
    39
  6
CONTINUOUS
 10
-0.304004
 20
1.231496
  0
VERTEX
  8
LAYER_1
 62
    39
  6
CONTINUOUS
 10
-0.300004
 20
1.234496
  0
VERTEX
  8
LAYER_1
 62
    39
  6
CONTINUOUS
 10
-0.296004
 20
1.237496
  0
VERTEX
  8
LAYER_1
 62
    39
  6
CONTINUOUS
 10
-0.293004
 20
1.241496
  0
VERTEX
  8
LAYER_1
 62
    39
  6
CONTINUOUS
 10
-0.289004
 20
1.244496
  0
VERTEX
  8
LAYER_1
 62
    39
  6
CONTINUOUS
 10
-0.286004
 20
1.248496
  0
VERTEX
  8
LAYER_1
 62
    39
  6
CONTINUOUS
 10
-0.283004
 20
1.252496
  0
VERTEX
  8
LAYER_1
 62
    39
  6
CONTINUOUS
 10
-0.280004
 20
1.256496
  0
VERTEX
  8
LAYER_1
 62
    39
  6
CONTINUOUS
 10
-0.277004
 20
1.260496
  0
VERTEX
  8
LAYER_1
 62
    39
  6
CONTINUOUS
 10
-0.274004
 20
1.265496
  0
VERTEX
  8
LAYER_1
 62
    39
  6
CONTINUOUS
 10
-0.272004
 20
1.269496
  0
VERTEX
  8
LAYER_1
 62
    39
  6
CONTINUOUS
 10
-0.270004
 20
1.274496
  0
VERTEX
  8
LAYER_1
 62
    39
  6
CONTINUOUS
 10
-0.268004
 20
1.279496
  0
VERTEX
  8
LAYER_1
 62
    39
  6
CONTINUOUS
 10
-0.267004
 20
1.283496
  0
VERTEX
  8
LAYER_1
 62
    39
  6
CONTINUOUS
 10
-0.265004
 20
1.288496
  0
VERTEX
  8
LAYER_1
 62
    39
  6
CONTINUOUS
 10
-0.264004
 20
1.292496
  0
VERTEX
  8
LAYER_1
 62
    39
  6
CONTINUOUS
 10
-0.263004
 20
1.297496
  0
VERTEX
  8
LAYER_1
 62
    39
  6
CONTINUOUS
 10
-0.263004
 20
1.302496
  0
VERTEX
  8
LAYER_1
 62
    39
  6
CONTINUOUS
 10
-0.262004
 20
1.307496
  0
SEQEND
  8
0
  0
POLYLINE
  8
LAYER_1
 62
    39
  6
CONTINUOUS
 66
     1
 40
0.004390
 41
0.004390
  0
VERTEX
  8
LAYER_1
 62
    39
  6
CONTINUOUS
 10
-0.285004
 20
1.273496
  0
VERTEX
  8
LAYER_1
 62
    39
  6
CONTINUOUS
 10
-0.318004
 20
1.273496
  0
SEQEND
  8
0
  0
POLYLINE
  8
LAYER_1
 62
    39
  6
CONTINUOUS
 66
     1
 40
0.004390
 41
0.004390
  0
VERTEX
  8
LAYER_1
 62
    39
  6
CONTINUOUS
 10
-0.302004
 20
1.288496
  0
VERTEX
  8
LAYER_1
 62
    39
  6
CONTINUOUS
 10
-0.302004
 20
1.257496
  0
SEQEND
  8
0
  0
POLYLINE
  8
LAYER_1
 62
    39
  6
CONTINUOUS
 66
     1
 40
0.004390
 41
0.004390
  0
VERTEX
  8
LAYER_1
 62
    39
  6
CONTINUOUS
 10
-0.327004
 20
1.302496
  0
VERTEX
  8
LAYER_1
 62
    39
  6
CONTINUOUS
 10
-0.337004
 20
1.312496
  0
VERTEX
  8
LAYER_1
 62
    39
  6
CONTINUOUS
 10
-0.327004
 20
1.302496
  0
VERTEX
  8
LAYER_1
 62
    39
  6
CONTINUOUS
 10
-0.327004
 20
1.283496
  0
VERTEX
  8
LAYER_1
 62
    39
  6
CONTINUOUS
 10
-0.337004
 20
1.273496
  0
VERTEX
  8
LAYER_1
 62
    39
  6
CONTINUOUS
 10
-0.378004
 20
1.273496
  0
VERTEX
  8
LAYER_1
 62
    39
  6
CONTINUOUS
 10
-0.387004
 20
1.283496
  0
VERTEX
  8
LAYER_1
 62
    39
  6
CONTINUOUS
 10
-0.387004
 20
1.302496
  0
VERTEX
  8
LAYER_1
 62
    39
  6
CONTINUOUS
 10
-0.378004
 20
1.312496
  0
SEQEND
  8
0
  0
POLYLINE
  8
LAYER_1
 62
    39
  6
CONTINUOUS
 66
     1
 40
0.004390
 41
0.004390
  0
VERTEX
  8
LAYER_1
 62
    39
  6
CONTINUOUS
 10
-0.387004
 20
1.333496
  0
VERTEX
  8
LAYER_1
 62
    39
  6
CONTINUOUS
 10
-0.387004
 20
1.372496
  0
VERTEX
  8
LAYER_1
 62
    39
  6
CONTINUOUS
 10
-0.378004
 20
1.372496
  0
VERTEX
  8
LAYER_1
 62
    39
  6
CONTINUOUS
 10
-0.337004
 20
1.333496
  0
VERTEX
  8
LAYER_1
 62
    39
  6
CONTINUOUS
 10
-0.327004
 20
1.333496
  0
SEQEND
  8
0
  0
POLYLINE
  8
LAYER_1
 62
    39
  6
CONTINUOUS
 66
     1
 40
0.004390
 41
0.004390
  0
VERTEX
  8
LAYER_1
 62
    39
  6
CONTINUOUS
 10
-0.688004
 20
0.762496
  0
VERTEX
  8
LAYER_1
 62
    39
  6
CONTINUOUS
 10
-0.738004
 20
0.762496
  0
VERTEX
  8
LAYER_1
 62
    39
  6
CONTINUOUS
 10
-0.738004
 20
0.764496
  0
VERTEX
  8
LAYER_1
 62
    39
  6
CONTINUOUS
 10
-0.688004
 20
0.764496
  0
VERTEX
  8
LAYER_1
 62
    39
  6
CONTINUOUS
 10
-0.688004
 20
0.762496
  0
VERTEX
  8
LAYER_1
 62
    39
  6
CONTINUOUS
 10
-0.688004
 20
0.763496
  0
VERTEX
  8
LAYER_1
 62
    39
  6
CONTINUOUS
 10
-0.738004
 20
0.763496
  0
VERTEX
  8
LAYER_1
 62
    39
  6
CONTINUOUS
 10
-0.737004
 20
0.763496
  0
VERTEX
  8
LAYER_1
 62
    39
  6
CONTINUOUS
 10
-0.737004
 20
0.663496
  0
VERTEX
  8
LAYER_1
 62
    39
  6
CONTINUOUS
 10
-0.739004
 20
0.663496
  0
VERTEX
  8
LAYER_1
 62
    39
  6
CONTINUOUS
 10
-0.739004
 20
0.763496
  0
VERTEX
  8
LAYER_1
 62
    39
  6
CONTINUOUS
 10
-0.737004
 20
0.763496
  0
VERTEX
  8
LAYER_1
 62
    39
  6
CONTINUOUS
 10
-0.738004
 20
0.763496
  0
VERTEX
  8
LAYER_1
 62
    39
  6
CONTINUOUS
 10
-0.738004
 20
0.663496
  0
SEQEND
  8
0
  0
POLYLINE
  8
LAYER_1
 62
    39
  6
CONTINUOUS
 66
     1
 40
0.004390
 41
0.004390
  0
VERTEX
  8
LAYER_1
 62
    39
  6
CONTINUOUS
 10
-0.688004
 20
0.612496
  0
VERTEX
  8
LAYER_1
 62
    39
  6
CONTINUOUS
 10
-0.688004
 20
0.617496
  0
VERTEX
  8
LAYER_1
 62
    39
  6
CONTINUOUS
 10
-0.689004
 20
0.622496
  0
VERTEX
  8
LAYER_1
 62
    39
  6
CONTINUOUS
 10
-0.690004
 20
0.627496
  0
VERTEX
  8
LAYER_1
 62
    39
  6
CONTINUOUS
 10
-0.692004
 20
0.632496
  0
VERTEX
  8
LAYER_1
 62
    39
  6
CONTINUOUS
 10
-0.694004
 20
0.636496
  0
VERTEX
  8
LAYER_1
 62
    39
  6
CONTINUOUS
 10
-0.696004
 20
0.640496
  0
VERTEX
  8
LAYER_1
 62
    39
  6
CONTINUOUS
 10
-0.699004
 20
0.644496
  0
VERTEX
  8
LAYER_1
 62
    39
  6
CONTINUOUS
 10
-0.702004
 20
0.648496
  0
VERTEX
  8
LAYER_1
 62
    39
  6
CONTINUOUS
 10
-0.705004
 20
0.651496
  0
VERTEX
  8
LAYER_1
 62
    39
  6
CONTINUOUS
 10
-0.709004
 20
0.654496
  0
VERTEX
  8
LAYER_1
 62
    39
  6
CONTINUOUS
 10
-0.714004
 20
0.657496
  0
VERTEX
  8
LAYER_1
 62
    39
  6
CONTINUOUS
 10
-0.718004
 20
0.659496
  0
VERTEX
  8
LAYER_1
 62
    39
  6
CONTINUOUS
 10
-0.723004
 20
0.661496
  0
VERTEX
  8
LAYER_1
 62
    39
  6
CONTINUOUS
 10
-0.728004
 20
0.662496
  0
VERTEX
  8
LAYER_1
 62
    39
  6
CONTINUOUS
 10
-0.733004
 20
0.663496
  0
VERTEX
  8
LAYER_1
 62
    39
  6
CONTINUOUS
 10
-0.738004
 20
0.663496
  0
SEQEND
  8
0
  0
POLYLINE
  8
LAYER_1
 62
    39
  6
CONTINUOUS
 66
     1
 40
0.004390
 41
0.004390
 70
     1
  0
VERTEX
  8
LAYER_1
 62
    39
  6
CONTINUOUS
 10
-0.738004
 20
0.562496
  0
VERTEX
  8
LAYER_1
 62
    39
  6
CONTINUOUS
 10
-0.733004
 20
0.563496
  0
VERTEX
  8
LAYER_1
 62
    39
  6
CONTINUOUS
 10
-0.728004
 20
0.563496
  0
VERTEX
  8
LAYER_1
 62
    39
  6
CONTINUOUS
 10
-0.723004
 20
0.565496
  0
VERTEX
  8
LAYER_1
 62
    39
  6
CONTINUOUS
 10
-0.718004
 20
0.566496
  0
VERTEX
  8
LAYER_1
 62
    39
  6
CONTINUOUS
 10
-0.714004
 20
0.568496
  0
VERTEX
  8
LAYER_1
 62
    39
  6
CONTINUOUS
 10
-0.709004
 20
0.571496
  0
VERTEX
  8
LAYER_1
 62
    39
  6
CONTINUOUS
 10
-0.705004
 20
0.574496
  0
VERTEX
  8
LAYER_1
 62
    39
  6
CONTINUOUS
 10
-0.702004
 20
0.577496
  0
VERTEX
  8
LAYER_1
 62
    39
  6
CONTINUOUS
 10
-0.699004
 20
0.581496
  0
VERTEX
  8
LAYER_1
 62
    39
  6
CONTINUOUS
 10
-0.696004
 20
0.585496
  0
VERTEX
  8
LAYER_1
 62
    39
  6
CONTINUOUS
 10
-0.694004
 20
0.589496
  0
VERTEX
  8
LAYER_1
 62
    39
  6
CONTINUOUS
 10
-0.692004
 20
0.594496
  0
VERTEX
  8
LAYER_1
 62
    39
  6
CONTINUOUS
 10
-0.690004
 20
0.598496
  0
VERTEX
  8
LAYER_1
 62
    39
  6
CONTINUOUS
 10
-0.689004
 20
0.602496
  0
VERTEX
  8
LAYER_1
 62
    39
  6
CONTINUOUS
 10
-0.688004
 20
0.607496
  0
VERTEX
  8
LAYER_1
 62
    39
  6
CONTINUOUS
 10
-0.688004
 20
0.612496
  0
SEQEND
  8
0
  0
POLYLINE
  8
LAYER_1
 62
    39
  6
CONTINUOUS
 66
     1
 40
0.004390
 41
0.004390
  0
VERTEX
  8
LAYER_1
 62
    39
  6
CONTINUOUS
 10
-0.737004
 20
0.562496
  0
VERTEX
  8
LAYER_1
 62
    39
  6
CONTINUOUS
 10
-0.737004
 20
0.463496
  0
VERTEX
  8
LAYER_1
 62
    39
  6
CONTINUOUS
 10
-0.739004
 20
0.463496
  0
VERTEX
  8
LAYER_1
 62
    39
  6
CONTINUOUS
 10
-0.739004
 20
0.562496
  0
VERTEX
  8
LAYER_1
 62
    39
  6
CONTINUOUS
 10
-0.737004
 20
0.562496
  0
VERTEX
  8
LAYER_1
 62
    39
  6
CONTINUOUS
 10
-0.738004
 20
0.562496
  0
VERTEX
  8
LAYER_1
 62
    39
  6
CONTINUOUS
 10
-0.738004
 20
0.463496
  0
VERTEX
  8
LAYER_1
 62
    39
  6
CONTINUOUS
 10
-0.738004
 20
0.464496
  0
VERTEX
  8
LAYER_1
 62
    39
  6
CONTINUOUS
 10
-0.688004
 20
0.464496
  0
VERTEX
  8
LAYER_1
 62
    39
  6
CONTINUOUS
 10
-0.688004
 20
0.462496
  0
VERTEX
  8
LAYER_1
 62
    39
  6
CONTINUOUS
 10
-0.738004
 20
0.462496
  0
VERTEX
  8
LAYER_1
 62
    39
  6
CONTINUOUS
 10
-0.738004
 20
0.464496
  0
VERTEX
  8
LAYER_1
 62
    39
  6
CONTINUOUS
 10
-0.738004
 20
0.463496
  0
VERTEX
  8
LAYER_1
 62
    39
  6
CONTINUOUS
 10
-0.688004
 20
0.463496
  0
SEQEND
  8
0
  0
POLYLINE
  8
LAYER_1
 62
    39
  6
CONTINUOUS
 66
     1
 40
0.004390
 41
0.004390
 70
     1
  0
VERTEX
  8
LAYER_1
 62
    39
  6
CONTINUOUS
 10
-0.762004
 20
0.362496
  0
VERTEX
  8
LAYER_1
 62
    39
  6
CONTINUOUS
 10
-0.762004
 20
0.367496
  0
VERTEX
  8
LAYER_1
 62
    39
  6
CONTINUOUS
 10
-0.763004
 20
0.372496
  0
VERTEX
  8
LAYER_1
 62
    39
  6
CONTINUOUS
 10
-0.764004
 20
0.377496
  0
VERTEX
  8
LAYER_1
 62
    39
  6
CONTINUOUS
 10
-0.766004
 20
0.382496
  0
VERTEX
  8
LAYER_1
 62
    39
  6
CONTINUOUS
 10
-0.768004
 20
0.386496
  0
VERTEX
  8
LAYER_1
 62
    39
  6
CONTINUOUS
 10
-0.771004
 20
0.391496
  0
VERTEX
  8
LAYER_1
 62
    39
  6
CONTINUOUS
 10
-0.774004
 20
0.395496
  0
VERTEX
  8
LAYER_1
 62
    39
  6
CONTINUOUS
 10
-0.777004
 20
0.399496
  0
VERTEX
  8
LAYER_1
 62
    39
  6
CONTINUOUS
 10
-0.781004
 20
0.402496
  0
VERTEX
  8
LAYER_1
 62
    39
  6
CONTINUOUS
 10
-0.785004
 20
0.405496
  0
VERTEX
  8
LAYER_1
 62
    39
  6
CONTINUOUS
 10
-0.790004
 20
0.407496
  0
VERTEX
  8
LAYER_1
 62
    39
  6
CONTINUOUS
 10
-0.794004
 20
0.409496
  0
VERTEX
  8
LAYER_1
 62
    39
  6
CONTINUOUS
 10
-0.799004
 20
0.411496
  0
VERTEX
  8
LAYER_1
 62
    39
  6
CONTINUOUS
 10
-0.804004
 20
0.412496
  0
VERTEX
  8
LAYER_1
 62
    39
  6
CONTINUOUS
 10
-0.809004
 20
0.413496
  0
VERTEX
  8
LAYER_1
 62
    39
  6
CONTINUOUS
 10
-0.814004
 20
0.413496
  0
VERTEX
  8
LAYER_1
 62
    39
  6
CONTINUOUS
 10
-0.819004
 20
0.413496
  0
VERTEX
  8
LAYER_1
 62
    39
  6
CONTINUOUS
 10
-0.824004
 20
0.412496
  0
VERTEX
  8
LAYER_1
 62
    39
  6
CONTINUOUS
 10
-0.828004
 20
0.410496
  0
VERTEX
  8
LAYER_1
 62
    39
  6
CONTINUOUS
 10
-0.833004
 20
0.409496
  0
VERTEX
  8
LAYER_1
 62
    39
  6
CONTINUOUS
 10
-0.837004
 20
0.406496
  0
VERTEX
  8
LAYER_1
 62
    39
  6
CONTINUOUS
 10
-0.841004
 20
0.403496
  0
VERTEX
  8
LAYER_1
 62
    39
  6
CONTINUOUS
 10
-0.845004
 20
0.400496
  0
VERTEX
  8
LAYER_1
 62
    39
  6
CONTINUOUS
 10
-0.849004
 20
0.397496
  0
VERTEX
  8
LAYER_1
 62
    39
  6
CONTINUOUS
 10
-0.852004
 20
0.393496
  0
VERTEX
  8
LAYER_1
 62
    39
  6
CONTINUOUS
 10
-0.855004
 20
0.389496
  0
VERTEX
  8
LAYER_1
 62
    39
  6
CONTINUOUS
 10
-0.858004
 20
0.384496
  0
VERTEX
  8
LAYER_1
 62
    39
  6
CONTINUOUS
 10
-0.860004
 20
0.380496
  0
VERTEX
  8
LAYER_1
 62
    39
  6
CONTINUOUS
 10
-0.861004
 20
0.375496
  0
VERTEX
  8
LAYER_1
 62
    39
  6
CONTINUOUS
 10
-0.862004
 20
0.370496
  0
VERTEX
  8
LAYER_1
 62
    39
  6
CONTINUOUS
 10
-0.863004
 20
0.365496
  0
VERTEX
  8
LAYER_1
 62
    39
  6
CONTINUOUS
 10
-0.863004
 20
0.360496
  0
VERTEX
  8
LAYER_1
 62
    39
  6
CONTINUOUS
 10
-0.862004
 20
0.355496
  0
VERTEX
  8
LAYER_1
 62
    39
  6
CONTINUOUS
 10
-0.861004
 20
0.350496
  0
VERTEX
  8
LAYER_1
 62
    39
  6
CONTINUOUS
 10
-0.860004
 20
0.346496
  0
VERTEX
  8
LAYER_1
 62
    39
  6
CONTINUOUS
 10
-0.858004
 20
0.341496
  0
VERTEX
  8
LAYER_1
 62
    39
  6
CONTINUOUS
 10
-0.855004
 20
0.337496
  0
VERTEX
  8
LAYER_1
 62
    39
  6
CONTINUOUS
 10
-0.852004
 20
0.333496
  0
VERTEX
  8
LAYER_1
 62
    39
  6
CONTINUOUS
 10
-0.849004
 20
0.329496
  0
VERTEX
  8
LAYER_1
 62
    39
  6
CONTINUOUS
 10
-0.845004
 20
0.325496
  0
VERTEX
  8
LAYER_1
 62
    39
  6
CONTINUOUS
 10
-0.841004
 20
0.322496
  0
VERTEX
  8
LAYER_1
 62
    39
  6
CONTINUOUS
 10
-0.837004
 20
0.319496
  0
VERTEX
  8
LAYER_1
 62
    39
  6
CONTINUOUS
 10
-0.833004
 20
0.317496
  0
VERTEX
  8
LAYER_1
 62
    39
  6
CONTINUOUS
 10
-0.828004
 20
0.315496
  0
VERTEX
  8
LAYER_1
 62
    39
  6
CONTINUOUS
 10
-0.824004
 20
0.314496
  0
VERTEX
  8
LAYER_1
 62
    39
  6
CONTINUOUS
 10
-0.819004
 20
0.313496
  0
VERTEX
  8
LAYER_1
 62
    39
  6
CONTINUOUS
 10
-0.814004
 20
0.312496
  0
VERTEX
  8
LAYER_1
 62
    39
  6
CONTINUOUS
 10
-0.809004
 20
0.313496
  0
VERTEX
  8
LAYER_1
 62
    39
  6
CONTINUOUS
 10
-0.804004
 20
0.313496
  0
VERTEX
  8
LAYER_1
 62
    39
  6
CONTINUOUS
 10
-0.799004
 20
0.314496
  0
VERTEX
  8
LAYER_1
 62
    39
  6
CONTINUOUS
 10
-0.794004
 20
0.316496
  0
VERTEX
  8
LAYER_1
 62
    39
  6
CONTINUOUS
 10
-0.790004
 20
0.318496
  0
VERTEX
  8
LAYER_1
 62
    39
  6
CONTINUOUS
 10
-0.785004
 20
0.321496
  0
VERTEX
  8
LAYER_1
 62
    39
  6
CONTINUOUS
 10
-0.781004
 20
0.323496
  0
VERTEX
  8
LAYER_1
 62
    39
  6
CONTINUOUS
 10
-0.777004
 20
0.327496
  0
VERTEX
  8
LAYER_1
 62
    39
  6
CONTINUOUS
 10
-0.774004
 20
0.331496
  0
VERTEX
  8
LAYER_1
 62
    39
  6
CONTINUOUS
 10
-0.771004
 20
0.335496
  0
VERTEX
  8
LAYER_1
 62
    39
  6
CONTINUOUS
 10
-0.768004
 20
0.339496
  0
VERTEX
  8
LAYER_1
 62
    39
  6
CONTINUOUS
 10
-0.766004
 20
0.343496
  0
VERTEX
  8
LAYER_1
 62
    39
  6
CONTINUOUS
 10
-0.764004
 20
0.348496
  0
VERTEX
  8
LAYER_1
 62
    39
  6
CONTINUOUS
 10
-0.763004
 20
0.352496
  0
VERTEX
  8
LAYER_1
 62
    39
  6
CONTINUOUS
 10
-0.762004
 20
0.357496
  0
SEQEND
  8
0
  0
POLYLINE
  8
LAYER_1
 62
    39
  6
CONTINUOUS
 66
     1
 40
0.004390
 41
0.004390
  0
VERTEX
  8
LAYER_1
 62
    39
  6
CONTINUOUS
 10
-0.943004
 20
0.367496
  0
VERTEX
  8
LAYER_1
 62
    39
  6
CONTINUOUS
 10
-0.943004
 20
0.328496
  0
VERTEX
  8
LAYER_1
 62
    39
  6
CONTINUOUS
 10
-0.943004
 20
0.367496
  0
VERTEX
  8
LAYER_1
 62
    39
  6
CONTINUOUS
 10
-0.943004
 20
0.348496
  0
VERTEX
  8
LAYER_1
 62
    39
  6
CONTINUOUS
 10
-0.883004
 20
0.348496
  0
SEQEND
  8
0
  0
POLYLINE
  8
LAYER_1
 62
    39
  6
CONTINUOUS
 66
     1
 40
0.004390
 41
0.004390
  0
VERTEX
  8
LAYER_1
 62
    39
  6
CONTINUOUS
 10
-0.943004
 20
0.388496
  0
VERTEX
  8
LAYER_1
 62
    39
  6
CONTINUOUS
 10
-0.943004
 20
0.427496
  0
VERTEX
  8
LAYER_1
 62
    39
  6
CONTINUOUS
 10
-0.933004
 20
0.427496
  0
VERTEX
  8
LAYER_1
 62
    39
  6
CONTINUOUS
 10
-0.892004
 20
0.388496
  0
VERTEX
  8
LAYER_1
 62
    39
  6
CONTINUOUS
 10
-0.883004
 20
0.388496
  0
SEQEND
  8
0
  0
POLYLINE
  8
LAYER_1
 62
    39
  6
CONTINUOUS
 66
     1
 40
0.004390
 41
0.004390
  0
VERTEX
  8
LAYER_1
 62
    39
  6
CONTINUOUS
 10
-0.943004
 20
0.617496
  0
VERTEX
  8
LAYER_1
 62
    39
  6
CONTINUOUS
 10
-0.943004
 20
0.658496
  0
VERTEX
  8
LAYER_1
 62
    39
  6
CONTINUOUS
 10
-0.943004
 20
0.638496
  0
VERTEX
  8
LAYER_1
 62
    39
  6
CONTINUOUS
 10
-0.883004
 20
0.638496
  0
SEQEND
  8
0
  0
POLYLINE
  8
LAYER_1
 62
    39
  6
CONTINUOUS
 66
     1
 40
0.004390
 41
0.004390
  0
VERTEX
  8
LAYER_1
 62
    39
  6
CONTINUOUS
 10
-0.883004
 20
0.687496
  0
VERTEX
  8
LAYER_1
 62
    39
  6
CONTINUOUS
 10
-0.883004
 20
0.698496
  0
VERTEX
  8
LAYER_1
 62
    39
  6
CONTINUOUS
 10
-0.902004
 20
0.718496
  0
VERTEX
  8
LAYER_1
 62
    39
  6
CONTINUOUS
 10
-0.933004
 20
0.718496
  0
VERTEX
  8
LAYER_1
 62
    39
  6
CONTINUOUS
 10
-0.943004
 20
0.708496
  0
VERTEX
  8
LAYER_1
 62
    39
  6
CONTINUOUS
 10
-0.943004
 20
0.687496
  0
VERTEX
  8
LAYER_1
 62
    39
  6
CONTINUOUS
 10
-0.933004
 20
0.677496
  0
VERTEX
  8
LAYER_1
 62
    39
  6
CONTINUOUS
 10
-0.923004
 20
0.677496
  0
VERTEX
  8
LAYER_1
 62
    39
  6
CONTINUOUS
 10
-0.912004
 20
0.687496
  0
VERTEX
  8
LAYER_1
 62
    39
  6
CONTINUOUS
 10
-0.912004
 20
0.718496
  0
SEQEND
  8
0
  0
POLYLINE
  8
LAYER_1
 62
    39
  6
CONTINUOUS
 66
     1
 40
0.004390
 41
0.004390
  0
VERTEX
  8
LAYER_1
 62
    39
  6
CONTINUOUS
 10
-0.948004
 20
0.823496
  0
VERTEX
  8
LAYER_1
 62
    39
  6
CONTINUOUS
 10
-0.948004
 20
0.862496
  0
VERTEX
  8
LAYER_1
 62
    39
  6
CONTINUOUS
 10
-0.948004
 20
0.843496
  0
VERTEX
  8
LAYER_1
 62
    39
  6
CONTINUOUS
 10
-0.887004
 20
0.843496
  0
SEQEND
  8
0
  0
POLYLINE
  8
LAYER_1
 62
    39
  6
CONTINUOUS
 66
     1
 40
0.004390
 41
0.004390
  0
VERTEX
  8
LAYER_1
 62
    39
  6
CONTINUOUS
 10
-0.917004
 20
0.883496
  0
VERTEX
  8
LAYER_1
 62
    39
  6
CONTINUOUS
 10
-0.917004
 20
0.913496
  0
VERTEX
  8
LAYER_1
 62
    39
  6
CONTINUOUS
 10
-0.907004
 20
0.922496
  0
VERTEX
  8
LAYER_1
 62
    39
  6
CONTINUOUS
 10
-0.897004
 20
0.922496
  0
VERTEX
  8
LAYER_1
 62
    39
  6
CONTINUOUS
 10
-0.887004
 20
0.913496
  0
VERTEX
  8
LAYER_1
 62
    39
  6
CONTINUOUS
 10
-0.887004
 20
0.893496
  0
VERTEX
  8
LAYER_1
 62
    39
  6
CONTINUOUS
 10
-0.897004
 20
0.883496
  0
VERTEX
  8
LAYER_1
 62
    39
  6
CONTINUOUS
 10
-0.928004
 20
0.883496
  0
VERTEX
  8
LAYER_1
 62
    39
  6
CONTINUOUS
 10
-0.948004
 20
0.903496
  0
VERTEX
  8
LAYER_1
 62
    39
  6
CONTINUOUS
 10
-0.948004
 20
0.913496
  0
SEQEND
  8
0
  0
POLYLINE
  8
LAYER_1
 62
    39
  6
CONTINUOUS
 66
     1
 40
0.004390
 41
0.004390
 70
     1
  0
VERTEX
  8
LAYER_1
 62
    39
  6
CONTINUOUS
 10
-0.762004
 20
0.862496
  0
VERTEX
  8
LAYER_1
 62
    39
  6
CONTINUOUS
 10
-0.762004
 20
0.867496
  0
VERTEX
  8
LAYER_1
 62
    39
  6
CONTINUOUS
 10
-0.763004
 20
0.872496
  0
VERTEX
  8
LAYER_1
 62
    39
  6
CONTINUOUS
 10
-0.764004
 20
0.877496
  0
VERTEX
  8
LAYER_1
 62
    39
  6
CONTINUOUS
 10
-0.766004
 20
0.882496
  0
VERTEX
  8
LAYER_1
 62
    39
  6
CONTINUOUS
 10
-0.768004
 20
0.886496
  0
VERTEX
  8
LAYER_1
 62
    39
  6
CONTINUOUS
 10
-0.771004
 20
0.891496
  0
VERTEX
  8
LAYER_1
 62
    39
  6
CONTINUOUS
 10
-0.774004
 20
0.895496
  0
VERTEX
  8
LAYER_1
 62
    39
  6
CONTINUOUS
 10
-0.777004
 20
0.899496
  0
VERTEX
  8
LAYER_1
 62
    39
  6
CONTINUOUS
 10
-0.781004
 20
0.902496
  0
VERTEX
  8
LAYER_1
 62
    39
  6
CONTINUOUS
 10
-0.785004
 20
0.905496
  0
VERTEX
  8
LAYER_1
 62
    39
  6
CONTINUOUS
 10
-0.790004
 20
0.907496
  0
VERTEX
  8
LAYER_1
 62
    39
  6
CONTINUOUS
 10
-0.794004
 20
0.909496
  0
VERTEX
  8
LAYER_1
 62
    39
  6
CONTINUOUS
 10
-0.799004
 20
0.911496
  0
VERTEX
  8
LAYER_1
 62
    39
  6
CONTINUOUS
 10
-0.804004
 20
0.912496
  0
VERTEX
  8
LAYER_1
 62
    39
  6
CONTINUOUS
 10
-0.809004
 20
0.913496
  0
VERTEX
  8
LAYER_1
 62
    39
  6
CONTINUOUS
 10
-0.814004
 20
0.913496
  0
VERTEX
  8
LAYER_1
 62
    39
  6
CONTINUOUS
 10
-0.819004
 20
0.913496
  0
VERTEX
  8
LAYER_1
 62
    39
  6
CONTINUOUS
 10
-0.824004
 20
0.912496
  0
VERTEX
  8
LAYER_1
 62
    39
  6
CONTINUOUS
 10
-0.828004
 20
0.910496
  0
VERTEX
  8
LAYER_1
 62
    39
  6
CONTINUOUS
 10
-0.833004
 20
0.909496
  0
VERTEX
  8
LAYER_1
 62
    39
  6
CONTINUOUS
 10
-0.837004
 20
0.906496
  0
VERTEX
  8
LAYER_1
 62
    39
  6
CONTINUOUS
 10
-0.841004
 20
0.903496
  0
VERTEX
  8
LAYER_1
 62
    39
  6
CONTINUOUS
 10
-0.845004
 20
0.900496
  0
VERTEX
  8
LAYER_1
 62
    39
  6
CONTINUOUS
 10
-0.849004
 20
0.897496
  0
VERTEX
  8
LAYER_1
 62
    39
  6
CONTINUOUS
 10
-0.852004
 20
0.893496
  0
VERTEX
  8
LAYER_1
 62
    39
  6
CONTINUOUS
 10
-0.855004
 20
0.889496
  0
VERTEX
  8
LAYER_1
 62
    39
  6
CONTINUOUS
 10
-0.858004
 20
0.884496
  0
VERTEX
  8
LAYER_1
 62
    39
  6
CONTINUOUS
 10
-0.860004
 20
0.880496
  0
VERTEX
  8
LAYER_1
 62
    39
  6
CONTINUOUS
 10
-0.861004
 20
0.875496
  0
VERTEX
  8
LAYER_1
 62
    39
  6
CONTINUOUS
 10
-0.862004
 20
0.870496
  0
VERTEX
  8
LAYER_1
 62
    39
  6
CONTINUOUS
 10
-0.863004
 20
0.865496
  0
VERTEX
  8
LAYER_1
 62
    39
  6
CONTINUOUS
 10
-0.863004
 20
0.860496
  0
VERTEX
  8
LAYER_1
 62
    39
  6
CONTINUOUS
 10
-0.862004
 20
0.855496
  0
VERTEX
  8
LAYER_1
 62
    39
  6
CONTINUOUS
 10
-0.861004
 20
0.850496
  0
VERTEX
  8
LAYER_1
 62
    39
  6
CONTINUOUS
 10
-0.860004
 20
0.846496
  0
VERTEX
  8
LAYER_1
 62
    39
  6
CONTINUOUS
 10
-0.858004
 20
0.841496
  0
VERTEX
  8
LAYER_1
 62
    39
  6
CONTINUOUS
 10
-0.855004
 20
0.837496
  0
VERTEX
  8
LAYER_1
 62
    39
  6
CONTINUOUS
 10
-0.852004
 20
0.833496
  0
VERTEX
  8
LAYER_1
 62
    39
  6
CONTINUOUS
 10
-0.849004
 20
0.829496
  0
VERTEX
  8
LAYER_1
 62
    39
  6
CONTINUOUS
 10
-0.845004
 20
0.825496
  0
VERTEX
  8
LAYER_1
 62
    39
  6
CONTINUOUS
 10
-0.841004
 20
0.822496
  0
VERTEX
  8
LAYER_1
 62
    39
  6
CONTINUOUS
 10
-0.837004
 20
0.819496
  0
VERTEX
  8
LAYER_1
 62
    39
  6
CONTINUOUS
 10
-0.833004
 20
0.817496
  0
VERTEX
  8
LAYER_1
 62
    39
  6
CONTINUOUS
 10
-0.828004
 20
0.815496
  0
VERTEX
  8
LAYER_1
 62
    39
  6
CONTINUOUS
 10
-0.824004
 20
0.814496
  0
VERTEX
  8
LAYER_1
 62
    39
  6
CONTINUOUS
 10
-0.819004
 20
0.813496
  0
VERTEX
  8
LAYER_1
 62
    39
  6
CONTINUOUS
 10
-0.814004
 20
0.812496
  0
VERTEX
  8
LAYER_1
 62
    39
  6
CONTINUOUS
 10
-0.809004
 20
0.813496
  0
VERTEX
  8
LAYER_1
 62
    39
  6
CONTINUOUS
 10
-0.804004
 20
0.813496
  0
VERTEX
  8
LAYER_1
 62
    39
  6
CONTINUOUS
 10
-0.799004
 20
0.814496
  0
VERTEX
  8
LAYER_1
 62
    39
  6
CONTINUOUS
 10
-0.794004
 20
0.816496
  0
VERTEX
  8
LAYER_1
 62
    39
  6
CONTINUOUS
 10
-0.790004
 20
0.818496
  0
VERTEX
  8
LAYER_1
 62
    39
  6
CONTINUOUS
 10
-0.785004
 20
0.821496
  0
VERTEX
  8
LAYER_1
 62
    39
  6
CONTINUOUS
 10
-0.781004
 20
0.823496
  0
VERTEX
  8
LAYER_1
 62
    39
  6
CONTINUOUS
 10
-0.777004
 20
0.827496
  0
VERTEX
  8
LAYER_1
 62
    39
  6
CONTINUOUS
 10
-0.774004
 20
0.831496
  0
VERTEX
  8
LAYER_1
 62
    39
  6
CONTINUOUS
 10
-0.771004
 20
0.835496
  0
VERTEX
  8
LAYER_1
 62
    39
  6
CONTINUOUS
 10
-0.768004
 20
0.839496
  0
VERTEX
  8
LAYER_1
 62
    39
  6
CONTINUOUS
 10
-0.766004
 20
0.843496
  0
VERTEX
  8
LAYER_1
 62
    39
  6
CONTINUOUS
 10
-0.764004
 20
0.848496
  0
VERTEX
  8
LAYER_1
 62
    39
  6
CONTINUOUS
 10
-0.763004
 20
0.852496
  0
VERTEX
  8
LAYER_1
 62
    39
  6
CONTINUOUS
 10
-0.762004
 20
0.857496
  0
SEQEND
  8
0
  0
POLYLINE
  8
LAYER_1
 62
    39
  6
CONTINUOUS
 66
     1
 40
0.004390
 41
0.004390
 70
     1
  0
VERTEX
  8
LAYER_1
 62
    39
  6
CONTINUOUS
 10
-0.762004
 20
0.663496
  0
VERTEX
  8
LAYER_1
 62
    39
  6
CONTINUOUS
 10
-0.762004
 20
0.667496
  0
VERTEX
  8
LAYER_1
 62
    39
  6
CONTINUOUS
 10
-0.763004
 20
0.672496
  0
VERTEX
  8
LAYER_1
 62
    39
  6
CONTINUOUS
 10
-0.764004
 20
0.677496
  0
VERTEX
  8
LAYER_1
 62
    39
  6
CONTINUOUS
 10
-0.766004
 20
0.682496
  0
VERTEX
  8
LAYER_1
 62
    39
  6
CONTINUOUS
 10
-0.768004
 20
0.686496
  0
VERTEX
  8
LAYER_1
 62
    39
  6
CONTINUOUS
 10
-0.771004
 20
0.691496
  0
VERTEX
  8
LAYER_1
 62
    39
  6
CONTINUOUS
 10
-0.774004
 20
0.695496
  0
VERTEX
  8
LAYER_1
 62
    39
  6
CONTINUOUS
 10
-0.777004
 20
0.698496
  0
VERTEX
  8
LAYER_1
 62
    39
  6
CONTINUOUS
 10
-0.781004
 20
0.702496
  0
VERTEX
  8
LAYER_1
 62
    39
  6
CONTINUOUS
 10
-0.785004
 20
0.705496
  0
VERTEX
  8
LAYER_1
 62
    39
  6
CONTINUOUS
 10
-0.790004
 20
0.707496
  0
VERTEX
  8
LAYER_1
 62
    39
  6
CONTINUOUS
 10
-0.794004
 20
0.709496
  0
VERTEX
  8
LAYER_1
 62
    39
  6
CONTINUOUS
 10
-0.799004
 20
0.711496
  0
VERTEX
  8
LAYER_1
 62
    39
  6
CONTINUOUS
 10
-0.804004
 20
0.712496
  0
VERTEX
  8
LAYER_1
 62
    39
  6
CONTINUOUS
 10
-0.809004
 20
0.713496
  0
VERTEX
  8
LAYER_1
 62
    39
  6
CONTINUOUS
 10
-0.814004
 20
0.713496
  0
VERTEX
  8
LAYER_1
 62
    39
  6
CONTINUOUS
 10
-0.819004
 20
0.712496
  0
VERTEX
  8
LAYER_1
 62
    39
  6
CONTINUOUS
 10
-0.824004
 20
0.712496
  0
VERTEX
  8
LAYER_1
 62
    39
  6
CONTINUOUS
 10
-0.828004
 20
0.710496
  0
VERTEX
  8
LAYER_1
 62
    39
  6
CONTINUOUS
 10
-0.833004
 20
0.708496
  0
VERTEX
  8
LAYER_1
 62
    39
  6
CONTINUOUS
 10
-0.837004
 20
0.706496
  0
VERTEX
  8
LAYER_1
 62
    39
  6
CONTINUOUS
 10
-0.841004
 20
0.703496
  0
VERTEX
  8
LAYER_1
 62
    39
  6
CONTINUOUS
 10
-0.845004
 20
0.700496
  0
VERTEX
  8
LAYER_1
 62
    39
  6
CONTINUOUS
 10
-0.849004
 20
0.697496
  0
VERTEX
  8
LAYER_1
 62
    39
  6
CONTINUOUS
 10
-0.852004
 20
0.693496
  0
VERTEX
  8
LAYER_1
 62
    39
  6
CONTINUOUS
 10
-0.855004
 20
0.688496
  0
VERTEX
  8
LAYER_1
 62
    39
  6
CONTINUOUS
 10
-0.858004
 20
0.684496
  0
VERTEX
  8
LAYER_1
 62
    39
  6
CONTINUOUS
 10
-0.860004
 20
0.679496
  0
VERTEX
  8
LAYER_1
 62
    39
  6
CONTINUOUS
 10
-0.861004
 20
0.675496
  0
VERTEX
  8
LAYER_1
 62
    39
  6
CONTINUOUS
 10
-0.862004
 20
0.670496
  0
VERTEX
  8
LAYER_1
 62
    39
  6
CONTINUOUS
 10
-0.863004
 20
0.665496
  0
VERTEX
  8
LAYER_1
 62
    39
  6
CONTINUOUS
 10
-0.863004
 20
0.660496
  0
VERTEX
  8
LAYER_1
 62
    39
  6
CONTINUOUS
 10
-0.862004
 20
0.655496
  0
VERTEX
  8
LAYER_1
 62
    39
  6
CONTINUOUS
 10
-0.861004
 20
0.650496
  0
VERTEX
  8
LAYER_1
 62
    39
  6
CONTINUOUS
 10
-0.860004
 20
0.646496
  0
VERTEX
  8
LAYER_1
 62
    39
  6
CONTINUOUS
 10
-0.858004
 20
0.641496
  0
VERTEX
  8
LAYER_1
 62
    39
  6
CONTINUOUS
 10
-0.855004
 20
0.637496
  0
VERTEX
  8
LAYER_1
 62
    39
  6
CONTINUOUS
 10
-0.852004
 20
0.632496
  0
VERTEX
  8
LAYER_1
 62
    39
  6
CONTINUOUS
 10
-0.849004
 20
0.628496
  0
VERTEX
  8
LAYER_1
 62
    39
  6
CONTINUOUS
 10
-0.845004
 20
0.625496
  0
VERTEX
  8
LAYER_1
 62
    39
  6
CONTINUOUS
 10
-0.841004
 20
0.622496
  0
VERTEX
  8
LAYER_1
 62
    39
  6
CONTINUOUS
 10
-0.837004
 20
0.619496
  0
VERTEX
  8
LAYER_1
 62
    39
  6
CONTINUOUS
 10
-0.833004
 20
0.617496
  0
VERTEX
  8
LAYER_1
 62
    39
  6
CONTINUOUS
 10
-0.828004
 20
0.615496
  0
VERTEX
  8
LAYER_1
 62
    39
  6
CONTINUOUS
 10
-0.824004
 20
0.613496
  0
VERTEX
  8
LAYER_1
 62
    39
  6
CONTINUOUS
 10
-0.819004
 20
0.613496
  0
VERTEX
  8
LAYER_1
 62
    39
  6
CONTINUOUS
 10
-0.814004
 20
0.612496
  0
VERTEX
  8
LAYER_1
 62
    39
  6
CONTINUOUS
 10
-0.809004
 20
0.612496
  0
VERTEX
  8
LAYER_1
 62
    39
  6
CONTINUOUS
 10
-0.804004
 20
0.613496
  0
VERTEX
  8
LAYER_1
 62
    39
  6
CONTINUOUS
 10
-0.799004
 20
0.614496
  0
VERTEX
  8
LAYER_1
 62
    39
  6
CONTINUOUS
 10
-0.794004
 20
0.616496
  0
VERTEX
  8
LAYER_1
 62
    39
  6
CONTINUOUS
 10
-0.790004
 20
0.618496
  0
VERTEX
  8
LAYER_1
 62
    39
  6
CONTINUOUS
 10
-0.785004
 20
0.620496
  0
VERTEX
  8
LAYER_1
 62
    39
  6
CONTINUOUS
 10
-0.781004
 20
0.623496
  0
VERTEX
  8
LAYER_1
 62
    39
  6
CONTINUOUS
 10
-0.777004
 20
0.627496
  0
VERTEX
  8
LAYER_1
 62
    39
  6
CONTINUOUS
 10
-0.774004
 20
0.630496
  0
VERTEX
  8
LAYER_1
 62
    39
  6
CONTINUOUS
 10
-0.771004
 20
0.634496
  0
VERTEX
  8
LAYER_1
 62
    39
  6
CONTINUOUS
 10
-0.768004
 20
0.639496
  0
VERTEX
  8
LAYER_1
 62
    39
  6
CONTINUOUS
 10
-0.766004
 20
0.643496
  0
VERTEX
  8
LAYER_1
 62
    39
  6
CONTINUOUS
 10
-0.764004
 20
0.648496
  0
VERTEX
  8
LAYER_1
 62
    39
  6
CONTINUOUS
 10
-0.763004
 20
0.653496
  0
VERTEX
  8
LAYER_1
 62
    39
  6
CONTINUOUS
 10
-0.762004
 20
0.658496
  0
SEQEND
  8
0
  0
POLYLINE
  8
LAYER_1
 62
    39
  6
CONTINUOUS
 66
     1
 40
0.004390
 41
0.004390
  0
VERTEX
  8
LAYER_1
 62
    39
  6
CONTINUOUS
 10
-0.554004
 20
0.593496
  0
VERTEX
  8
LAYER_1
 62
    39
  6
CONTINUOUS
 10
-0.543004
 20
0.593496
  0
VERTEX
  8
LAYER_1
 62
    39
  6
CONTINUOUS
 10
-0.543004
 20
0.653496
  0
VERTEX
  8
LAYER_1
 62
    39
  6
CONTINUOUS
 10
-0.554004
 20
0.653496
  0
VERTEX
  8
LAYER_1
 62
    39
  6
CONTINUOUS
 10
-0.533004
 20
0.653496
  0
VERTEX
  8
LAYER_1
 62
    39
  6
CONTINUOUS
 10
-0.543004
 20
0.653496
  0
VERTEX
  8
LAYER_1
 62
    39
  6
CONTINUOUS
 10
-0.543004
 20
0.593496
  0
VERTEX
  8
LAYER_1
 62
    39
  6
CONTINUOUS
 10
-0.533004
 20
0.593496
  0
SEQEND
  8
0
  0
POLYLINE
  8
LAYER_1
 62
    39
  6
CONTINUOUS
 66
     1
 40
0.004390
 41
0.004390
  0
VERTEX
  8
LAYER_1
 62
    39
  6
CONTINUOUS
 10
-0.484004
 20
0.593496
  0
VERTEX
  8
LAYER_1
 62
    39
  6
CONTINUOUS
 10
-0.473004
 20
0.602496
  0
VERTEX
  8
LAYER_1
 62
    39
  6
CONTINUOUS
 10
-0.484004
 20
0.593496
  0
VERTEX
  8
LAYER_1
 62
    39
  6
CONTINUOUS
 10
-0.504004
 20
0.593496
  0
VERTEX
  8
LAYER_1
 62
    39
  6
CONTINUOUS
 10
-0.513004
 20
0.602496
  0
VERTEX
  8
LAYER_1
 62
    39
  6
CONTINUOUS
 10
-0.513004
 20
0.643496
  0
VERTEX
  8
LAYER_1
 62
    39
  6
CONTINUOUS
 10
-0.504004
 20
0.653496
  0
VERTEX
  8
LAYER_1
 62
    39
  6
CONTINUOUS
 10
-0.484004
 20
0.653496
  0
VERTEX
  8
LAYER_1
 62
    39
  6
CONTINUOUS
 10
-0.473004
 20
0.643496
  0
SEQEND
  8
0
  0
POLYLINE
  8
LAYER_1
 62
    39
  6
CONTINUOUS
 66
     1
 40
0.004390
 41
0.004390
  0
VERTEX
  8
LAYER_1
 62
    39
  6
CONTINUOUS
 10
-0.453004
 20
0.643496
  0
VERTEX
  8
LAYER_1
 62
    39
  6
CONTINUOUS
 10
-0.444004
 20
0.653496
  0
VERTEX
  8
LAYER_1
 62
    39
  6
CONTINUOUS
 10
-0.424004
 20
0.653496
  0
VERTEX
  8
LAYER_1
 62
    39
  6
CONTINUOUS
 10
-0.413004
 20
0.643496
  0
VERTEX
  8
LAYER_1
 62
    39
  6
CONTINUOUS
 10
-0.413004
 20
0.633496
  0
VERTEX
  8
LAYER_1
 62
    39
  6
CONTINUOUS
 10
-0.424004
 20
0.622496
  0
VERTEX
  8
LAYER_1
 62
    39
  6
CONTINUOUS
 10
-0.444004
 20
0.622496
  0
VERTEX
  8
LAYER_1
 62
    39
  6
CONTINUOUS
 10
-0.453004
 20
0.612496
  0
VERTEX
  8
LAYER_1
 62
    39
  6
CONTINUOUS
 10
-0.453004
 20
0.593496
  0
VERTEX
  8
LAYER_1
 62
    39
  6
CONTINUOUS
 10
-0.413004
 20
0.593496
  0
SEQEND
  8
0
  0
POLYLINE
  8
LAYER_1
 62
    39
  6
CONTINUOUS
 66
     1
 40
0.004390
 41
0.004390
 70
     1
  0
VERTEX
  8
LAYER_1
 62
    39
  6
CONTINUOUS
 10
-0.762004
 20
0.163496
  0
VERTEX
  8
LAYER_1
 62
    39
  6
CONTINUOUS
 10
-0.762004
 20
0.167496
  0
VERTEX
  8
LAYER_1
 62
    39
  6
CONTINUOUS
 10
-0.763004
 20
0.172496
  0
VERTEX
  8
LAYER_1
 62
    39
  6
CONTINUOUS
 10
-0.764004
 20
0.177496
  0
VERTEX
  8
LAYER_1
 62
    39
  6
CONTINUOUS
 10
-0.766004
 20
0.182496
  0
VERTEX
  8
LAYER_1
 62
    39
  6
CONTINUOUS
 10
-0.768004
 20
0.186496
  0
VERTEX
  8
LAYER_1
 62
    39
  6
CONTINUOUS
 10
-0.771004
 20
0.191496
  0
VERTEX
  8
LAYER_1
 62
    39
  6
CONTINUOUS
 10
-0.774004
 20
0.195496
  0
VERTEX
  8
LAYER_1
 62
    39
  6
CONTINUOUS
 10
-0.777004
 20
0.198496
  0
VERTEX
  8
LAYER_1
 62
    39
  6
CONTINUOUS
 10
-0.781004
 20
0.202496
  0
VERTEX
  8
LAYER_1
 62
    39
  6
CONTINUOUS
 10
-0.785004
 20
0.205496
  0
VERTEX
  8
LAYER_1
 62
    39
  6
CONTINUOUS
 10
-0.790004
 20
0.207496
  0
VERTEX
  8
LAYER_1
 62
    39
  6
CONTINUOUS
 10
-0.794004
 20
0.209496
  0
VERTEX
  8
LAYER_1
 62
    39
  6
CONTINUOUS
 10
-0.799004
 20
0.211496
  0
VERTEX
  8
LAYER_1
 62
    39
  6
CONTINUOUS
 10
-0.804004
 20
0.212496
  0
VERTEX
  8
LAYER_1
 62
    39
  6
CONTINUOUS
 10
-0.809004
 20
0.213496
  0
VERTEX
  8
LAYER_1
 62
    39
  6
CONTINUOUS
 10
-0.814004
 20
0.213496
  0
VERTEX
  8
LAYER_1
 62
    39
  6
CONTINUOUS
 10
-0.819004
 20
0.212496
  0
VERTEX
  8
LAYER_1
 62
    39
  6
CONTINUOUS
 10
-0.824004
 20
0.212496
  0
VERTEX
  8
LAYER_1
 62
    39
  6
CONTINUOUS
 10
-0.828004
 20
0.210496
  0
VERTEX
  8
LAYER_1
 62
    39
  6
CONTINUOUS
 10
-0.833004
 20
0.208496
  0
VERTEX
  8
LAYER_1
 62
    39
  6
CONTINUOUS
 10
-0.837004
 20
0.206496
  0
VERTEX
  8
LAYER_1
 62
    39
  6
CONTINUOUS
 10
-0.841004
 20
0.203496
  0
VERTEX
  8
LAYER_1
 62
    39
  6
CONTINUOUS
 10
-0.845004
 20
0.200496
  0
VERTEX
  8
LAYER_1
 62
    39
  6
CONTINUOUS
 10
-0.849004
 20
0.197496
  0
VERTEX
  8
LAYER_1
 62
    39
  6
CONTINUOUS
 10
-0.852004
 20
0.193496
  0
VERTEX
  8
LAYER_1
 62
    39
  6
CONTINUOUS
 10
-0.855004
 20
0.188496
  0
VERTEX
  8
LAYER_1
 62
    39
  6
CONTINUOUS
 10
-0.858004
 20
0.184496
  0
VERTEX
  8
LAYER_1
 62
    39
  6
CONTINUOUS
 10
-0.860004
 20
0.179496
  0
VERTEX
  8
LAYER_1
 62
    39
  6
CONTINUOUS
 10
-0.861004
 20
0.175496
  0
VERTEX
  8
LAYER_1
 62
    39
  6
CONTINUOUS
 10
-0.862004
 20
0.170496
  0
VERTEX
  8
LAYER_1
 62
    39
  6
CONTINUOUS
 10
-0.863004
 20
0.165496
  0
VERTEX
  8
LAYER_1
 62
    39
  6
CONTINUOUS
 10
-0.863004
 20
0.160496
  0
VERTEX
  8
LAYER_1
 62
    39
  6
CONTINUOUS
 10
-0.862004
 20
0.155496
  0
VERTEX
  8
LAYER_1
 62
    39
  6
CONTINUOUS
 10
-0.861004
 20
0.150496
  0
VERTEX
  8
LAYER_1
 62
    39
  6
CONTINUOUS
 10
-0.860004
 20
0.146496
  0
VERTEX
  8
LAYER_1
 62
    39
  6
CONTINUOUS
 10
-0.858004
 20
0.141496
  0
VERTEX
  8
LAYER_1
 62
    39
  6
CONTINUOUS
 10
-0.855004
 20
0.137496
  0
VERTEX
  8
LAYER_1
 62
    39
  6
CONTINUOUS
 10
-0.852004
 20
0.132496
  0
VERTEX
  8
LAYER_1
 62
    39
  6
CONTINUOUS
 10
-0.849004
 20
0.128496
  0
VERTEX
  8
LAYER_1
 62
    39
  6
CONTINUOUS
 10
-0.845004
 20
0.125496
  0
VERTEX
  8
LAYER_1
 62
    39
  6
CONTINUOUS
 10
-0.841004
 20
0.122496
  0
VERTEX
  8
LAYER_1
 62
    39
  6
CONTINUOUS
 10
-0.837004
 20
0.119496
  0
VERTEX
  8
LAYER_1
 62
    39
  6
CONTINUOUS
 10
-0.833004
 20
0.117496
  0
VERTEX
  8
LAYER_1
 62
    39
  6
CONTINUOUS
 10
-0.828004
 20
0.115496
  0
VERTEX
  8
LAYER_1
 62
    39
  6
CONTINUOUS
 10
-0.824004
 20
0.113496
  0
VERTEX
  8
LAYER_1
 62
    39
  6
CONTINUOUS
 10
-0.819004
 20
0.113496
  0
VERTEX
  8
LAYER_1
 62
    39
  6
CONTINUOUS
 10
-0.814004
 20
0.112496
  0
VERTEX
  8
LAYER_1
 62
    39
  6
CONTINUOUS
 10
-0.809004
 20
0.112496
  0
VERTEX
  8
LAYER_1
 62
    39
  6
CONTINUOUS
 10
-0.804004
 20
0.113496
  0
VERTEX
  8
LAYER_1
 62
    39
  6
CONTINUOUS
 10
-0.799004
 20
0.114496
  0
VERTEX
  8
LAYER_1
 62
    39
  6
CONTINUOUS
 10
-0.794004
 20
0.116496
  0
VERTEX
  8
LAYER_1
 62
    39
  6
CONTINUOUS
 10
-0.790004
 20
0.118496
  0
VERTEX
  8
LAYER_1
 62
    39
  6
CONTINUOUS
 10
-0.785004
 20
0.120496
  0
VERTEX
  8
LAYER_1
 62
    39
  6
CONTINUOUS
 10
-0.781004
 20
0.123496
  0
VERTEX
  8
LAYER_1
 62
    39
  6
CONTINUOUS
 10
-0.777004
 20
0.127496
  0
VERTEX
  8
LAYER_1
 62
    39
  6
CONTINUOUS
 10
-0.774004
 20
0.130496
  0
VERTEX
  8
LAYER_1
 62
    39
  6
CONTINUOUS
 10
-0.771004
 20
0.134496
  0
VERTEX
  8
LAYER_1
 62
    39
  6
CONTINUOUS
 10
-0.768004
 20
0.139496
  0
VERTEX
  8
LAYER_1
 62
    39
  6
CONTINUOUS
 10
-0.766004
 20
0.143496
  0
VERTEX
  8
LAYER_1
 62
    39
  6
CONTINUOUS
 10
-0.764004
 20
0.148496
  0
VERTEX
  8
LAYER_1
 62
    39
  6
CONTINUOUS
 10
-0.763004
 20
0.153496
  0
VERTEX
  8
LAYER_1
 62
    39
  6
CONTINUOUS
 10
-0.762004
 20
0.158496
  0
SEQEND
  8
0
  0
POLYLINE
  8
LAYER_1
 62
    39
  6
CONTINUOUS
 66
     1
 40
0.004390
 41
0.004390
  0
VERTEX
  8
LAYER_1
 62
    39
  6
CONTINUOUS
 10
-0.948004
 20
0.153496
  0
VERTEX
  8
LAYER_1
 62
    39
  6
CONTINUOUS
 10
-0.948004
 20
0.112496
  0
VERTEX
  8
LAYER_1
 62
    39
  6
CONTINUOUS
 10
-0.948004
 20
0.153496
  0
VERTEX
  8
LAYER_1
 62
    39
  6
CONTINUOUS
 10
-0.948004
 20
0.133496
  0
VERTEX
  8
LAYER_1
 62
    39
  6
CONTINUOUS
 10
-0.887004
 20
0.133496
  0
SEQEND
  8
0
  0
POLYLINE
  8
LAYER_1
 62
    39
  6
CONTINUOUS
 66
     1
 40
0.004390
 41
0.004390
 70
     1
  0
VERTEX
  8
LAYER_1
 62
    39
  6
CONTINUOUS
 10
-0.887004
 20
0.182496
  0
VERTEX
  8
LAYER_1
 62
    39
  6
CONTINUOUS
 10
-0.897004
 20
0.172496
  0
VERTEX
  8
LAYER_1
 62
    39
  6
CONTINUOUS
 10
-0.907004
 20
0.172496
  0
VERTEX
  8
LAYER_1
 62
    39
  6
CONTINUOUS
 10
-0.917004
 20
0.182496
  0
VERTEX
  8
LAYER_1
 62
    39
  6
CONTINUOUS
 10
-0.917004
 20
0.203496
  0
VERTEX
  8
LAYER_1
 62
    39
  6
CONTINUOUS
 10
-0.928004
 20
0.213496
  0
VERTEX
  8
LAYER_1
 62
    39
  6
CONTINUOUS
 10
-0.938004
 20
0.213496
  0
VERTEX
  8
LAYER_1
 62
    39
  6
CONTINUOUS
 10
-0.948004
 20
0.203496
  0
VERTEX
  8
LAYER_1
 62
    39
  6
CONTINUOUS
 10
-0.948004
 20
0.182496
  0
VERTEX
  8
LAYER_1
 62
    39
  6
CONTINUOUS
 10
-0.938004
 20
0.172496
  0
VERTEX
  8
LAYER_1
 62
    39
  6
CONTINUOUS
 10
-0.928004
 20
0.172496
  0
VERTEX
  8
LAYER_1
 62
    39
  6
CONTINUOUS
 10
-0.917004
 20
0.182496
  0
VERTEX
  8
LAYER_1
 62
    39
  6
CONTINUOUS
 10
-0.917004
 20
0.203496
  0
VERTEX
  8
LAYER_1
 62
    39
  6
CONTINUOUS
 10
-0.907004
 20
0.213496
  0
VERTEX
  8
LAYER_1
 62
    39
  6
CONTINUOUS
 10
-0.897004
 20
0.213496
  0
VERTEX
  8
LAYER_1
 62
    39
  6
CONTINUOUS
 10
-0.887004
 20
0.203496
  0
SEQEND
  8
0
  0
POLYLINE
  8
LAYER_1
 62
    39
  6
CONTINUOUS
 66
     1
 40
0.004390
 41
0.004390
  0
VERTEX
  8
LAYER_1
 62
    39
  6
CONTINUOUS
 10
-0.962004
 20
0.013496
  0
VERTEX
  8
LAYER_1
 62
    39
  6
CONTINUOUS
 10
-0.962004
 20
-0.236504
  0
VERTEX
  8
LAYER_1
 62
    39
  6
CONTINUOUS
 10
1.037996
 20
-0.236504
  0
VERTEX
  8
LAYER_1
 62
    39
  6
CONTINUOUS
 10
0.787996
 20
-0.236504
  0
SEQEND
  8
0
  0
POLYLINE
  8
LAYER_1
 62
    39
  6
CONTINUOUS
 66
     1
 40
0.004390
 41
0.004390
  0
VERTEX
  8
LAYER_1
 62
    39
  6
CONTINUOUS
 10
1.037996
 20
-0.236504
  0
VERTEX
  8
LAYER_1
 62
    39
  6
CONTINUOUS
 10
1.037996
 20
1.487496
  0
SEQEND
  8
0
  0
POLYLINE
  8
LAYER_1
 62
    39
  6
CONTINUOUS
 66
     1
 40
0.004390
 41
0.004390
  0
VERTEX
  8
LAYER_1
 62
    39
  6
CONTINUOUS
 10
1.037996
 20
0.013496
  0
VERTEX
  8
LAYER_1
 62
    39
  6
CONTINUOUS
 10
1.037996
 20
-0.236504
  0
SEQEND
  8
0
  0
POLYLINE
  8
LAYER_1
 62
    39
  6
CONTINUOUS
 66
     1
 40
0.004390
 41
0.004390
  0
VERTEX
  8
LAYER_1
 62
    39
  6
CONTINUOUS
 10
-0.472004
 20
-1.176504
  0
VERTEX
  8
LAYER_1
 62
    39
  6
CONTINUOUS
 10
-0.512004
 20
-1.176504
  0
VERTEX
  8
LAYER_1
 62
    39
  6
CONTINUOUS
 10
-0.472004
 20
-1.176504
  0
VERTEX
  8
LAYER_1
 62
    39
  6
CONTINUOUS
 10
-0.493004
 20
-1.176504
  0
VERTEX
  8
LAYER_1
 62
    39
  6
CONTINUOUS
 10
-0.493004
 20
-1.236504
  0
SEQEND
  8
0
  0
POLYLINE
  8
LAYER_1
 62
    39
  6
CONTINUOUS
 66
     1
 40
0.004390
 41
0.004390
  0
VERTEX
  8
LAYER_1
 62
    39
  6
CONTINUOUS
 10
-0.452004
 20
-1.176504
  0
VERTEX
  8
LAYER_1
 62
    39
  6
CONTINUOUS
 10
-0.452004
 20
-1.187504
  0
VERTEX
  8
LAYER_1
 62
    39
  6
CONTINUOUS
 10
-0.433004
 20
-1.207504
  0
VERTEX
  8
LAYER_1
 62
    39
  6
CONTINUOUS
 10
-0.433004
 20
-1.236504
  0
VERTEX
  8
LAYER_1
 62
    39
  6
CONTINUOUS
 10
-0.433004
 20
-1.207504
  0
VERTEX
  8
LAYER_1
 62
    39
  6
CONTINUOUS
 10
-0.412004
 20
-1.187504
  0
VERTEX
  8
LAYER_1
 62
    39
  6
CONTINUOUS
 10
-0.412004
 20
-1.176504
  0
SEQEND
  8
0
  0
POLYLINE
  8
LAYER_1
 62
    39
  6
CONTINUOUS
 66
     1
 40
0.004390
 41
0.004390
  0
VERTEX
  8
LAYER_1
 62
    39
  6
CONTINUOUS
 10
-0.392004
 20
-1.176504
  0
VERTEX
  8
LAYER_1
 62
    39
  6
CONTINUOUS
 10
-0.392004
 20
-1.236504
  0
VERTEX
  8
LAYER_1
 62
    39
  6
CONTINUOUS
 10
-0.392004
 20
-1.176504
  0
VERTEX
  8
LAYER_1
 62
    39
  6
CONTINUOUS
 10
-0.363004
 20
-1.176504
  0
VERTEX
  8
LAYER_1
 62
    39
  6
CONTINUOUS
 10
-0.352004
 20
-1.187504
  0
VERTEX
  8
LAYER_1
 62
    39
  6
CONTINUOUS
 10
-0.352004
 20
-1.197504
  0
VERTEX
  8
LAYER_1
 62
    39
  6
CONTINUOUS
 10
-0.363004
 20
-1.207504
  0
VERTEX
  8
LAYER_1
 62
    39
  6
CONTINUOUS
 10
-0.392004
 20
-1.207504
  0
VERTEX
  8
LAYER_1
 62
    39
  6
CONTINUOUS
 10
-0.392004
 20
-1.236504
  0
SEQEND
  8
0
  0
POLYLINE
  8
LAYER_1
 62
    39
  6
CONTINUOUS
 66
     1
 40
0.004390
 41
0.004390
  0
VERTEX
  8
LAYER_1
 62
    39
  6
CONTINUOUS
 10
-0.332004
 20
-1.176504
  0
VERTEX
  8
LAYER_1
 62
    39
  6
CONTINUOUS
 10
-0.332004
 20
-1.236504
  0
VERTEX
  8
LAYER_1
 62
    39
  6
CONTINUOUS
 10
-0.332004
 20
-1.176504
  0
VERTEX
  8
LAYER_1
 62
    39
  6
CONTINUOUS
 10
-0.292004
 20
-1.176504
  0
VERTEX
  8
LAYER_1
 62
    39
  6
CONTINUOUS
 10
-0.332004
 20
-1.176504
  0
VERTEX
  8
LAYER_1
 62
    39
  6
CONTINUOUS
 10
-0.332004
 20
-1.207504
  0
VERTEX
  8
LAYER_1
 62
    39
  6
CONTINUOUS
 10
-0.313004
 20
-1.207504
  0
VERTEX
  8
LAYER_1
 62
    39
  6
CONTINUOUS
 10
-0.332004
 20
-1.207504
  0
VERTEX
  8
LAYER_1
 62
    39
  6
CONTINUOUS
 10
-0.332004
 20
-1.236504
  0
VERTEX
  8
LAYER_1
 62
    39
  6
CONTINUOUS
 10
-0.292004
 20
-1.236504
  0
SEQEND
  8
0
  0
POLYLINE
  8
LAYER_1
 62
    39
  6
CONTINUOUS
 66
     1
 40
0.004390
 41
0.004390
  0
VERTEX
  8
LAYER_1
 62
    39
  6
CONTINUOUS
 10
-0.212004
 20
-1.176504
  0
VERTEX
  8
LAYER_1
 62
    39
  6
CONTINUOUS
 10
-0.212004
 20
-1.236504
  0
VERTEX
  8
LAYER_1
 62
    39
  6
CONTINUOUS
 10
-0.212004
 20
-1.176504
  0
VERTEX
  8
LAYER_1
 62
    39
  6
CONTINUOUS
 10
-0.183004
 20
-1.176504
  0
VERTEX
  8
LAYER_1
 62
    39
  6
CONTINUOUS
 10
-0.173004
 20
-1.187504
  0
VERTEX
  8
LAYER_1
 62
    39
  6
CONTINUOUS
 10
-0.173004
 20
-1.197504
  0
VERTEX
  8
LAYER_1
 62
    39
  6
CONTINUOUS
 10
-0.183004
 20
-1.207504
  0
VERTEX
  8
LAYER_1
 62
    39
  6
CONTINUOUS
 10
-0.212004
 20
-1.207504
  0
VERTEX
  8
LAYER_1
 62
    39
  6
CONTINUOUS
 10
-0.202004
 20
-1.207504
  0
VERTEX
  8
LAYER_1
 62
    39
  6
CONTINUOUS
 10
-0.173004
 20
-1.236504
  0
SEQEND
  8
0
  0
POLYLINE
  8
LAYER_1
 62
    39
  6
CONTINUOUS
 66
     1
 40
0.004390
 41
0.004390
  0
VERTEX
  8
LAYER_1
 62
    39
  6
CONTINUOUS
 10
-0.152004
 20
-1.216504
  0
VERTEX
  8
LAYER_1
 62
    39
  6
CONTINUOUS
 10
-0.152004
 20
-1.236504
  0
VERTEX
  8
LAYER_1
 62
    39
  6
CONTINUOUS
 10
-0.152004
 20
-1.216504
  0
VERTEX
  8
LAYER_1
 62
    39
  6
CONTINUOUS
 10
-0.133004
 20
-1.176504
  0
VERTEX
  8
LAYER_1
 62
    39
  6
CONTINUOUS
 10
-0.113004
 20
-1.216504
  0
VERTEX
  8
LAYER_1
 62
    39
  6
CONTINUOUS
 10
-0.152004
 20
-1.216504
  0
VERTEX
  8
LAYER_1
 62
    39
  6
CONTINUOUS
 10
-0.113004
 20
-1.216504
  0
VERTEX
  8
LAYER_1
 62
    39
  6
CONTINUOUS
 10
-0.113004
 20
-1.236504
  0
SEQEND
  8
0
  0
POLYLINE
  8
LAYER_1
 62
    39
  6
CONTINUOUS
 66
     1
 40
0.004390
 41
0.004390
  0
VERTEX
  8
LAYER_1
 62
    39
  6
CONTINUOUS
 10
-0.053004
 20
-1.207504
  0
VERTEX
  8
LAYER_1
 62
    39
  6
CONTINUOUS
 10
-0.092004
 20
-1.207504
  0
SEQEND
  8
0
  0
POLYLINE
  8
LAYER_1
 62
    39
  6
CONTINUOUS
 66
     1
 40
0.004390
 41
0.004390
  0
VERTEX
  8
LAYER_1
 62
    39
  6
CONTINUOUS
 10
-0.012004
 20
-1.236504
  0
VERTEX
  8
LAYER_1
 62
    39
  6
CONTINUOUS
 10
-0.022004
 20
-1.236504
  0
VERTEX
  8
LAYER_1
 62
    39
  6
CONTINUOUS
 10
-0.012004
 20
-1.236504
  0
VERTEX
  8
LAYER_1
 62
    39
  6
CONTINUOUS
 10
0.006996
 20
-1.216504
  0
VERTEX
  8
LAYER_1
 62
    39
  6
CONTINUOUS
 10
0.006996
 20
-1.187504
  0
VERTEX
  8
LAYER_1
 62
    39
  6
CONTINUOUS
 10
-0.003004
 20
-1.176504
  0
VERTEX
  8
LAYER_1
 62
    39
  6
CONTINUOUS
 10
-0.022004
 20
-1.176504
  0
VERTEX
  8
LAYER_1
 62
    39
  6
CONTINUOUS
 10
-0.032004
 20
-1.187504
  0
VERTEX
  8
LAYER_1
 62
    39
  6
CONTINUOUS
 10
-0.032004
 20
-1.197504
  0
VERTEX
  8
LAYER_1
 62
    39
  6
CONTINUOUS
 10
-0.022004
 20
-1.207504
  0
VERTEX
  8
LAYER_1
 62
    39
  6
CONTINUOUS
 10
0.006996
 20
-1.207504
  0
SEQEND
  8
0
  0
POLYLINE
  8
LAYER_1
 62
    39
  6
CONTINUOUS
 66
     1
 40
0.004390
 41
0.004390
  0
VERTEX
  8
LAYER_1
 62
    39
  6
CONTINUOUS
 10
0.066996
 20
-1.207504
  0
VERTEX
  8
LAYER_1
 62
    39
  6
CONTINUOUS
 10
0.027996
 20
-1.207504
  0
SEQEND
  8
0
  0
POLYLINE
  8
LAYER_1
 62
    39
  6
CONTINUOUS
 66
     1
 40
0.004390
 41
0.004390
  0
VERTEX
  8
LAYER_1
 62
    39
  6
CONTINUOUS
 10
0.087996
 20
-1.216504
  0
VERTEX
  8
LAYER_1
 62
    39
  6
CONTINUOUS
 10
0.087996
 20
-1.236504
  0
VERTEX
  8
LAYER_1
 62
    39
  6
CONTINUOUS
 10
0.087996
 20
-1.216504
  0
VERTEX
  8
LAYER_1
 62
    39
  6
CONTINUOUS
 10
0.107996
 20
-1.176504
  0
VERTEX
  8
LAYER_1
 62
    39
  6
CONTINUOUS
 10
0.126996
 20
-1.216504
  0
VERTEX
  8
LAYER_1
 62
    39
  6
CONTINUOUS
 10
0.087996
 20
-1.216504
  0
VERTEX
  8
LAYER_1
 62
    39
  6
CONTINUOUS
 10
0.126996
 20
-1.216504
  0
VERTEX
  8
LAYER_1
 62
    39
  6
CONTINUOUS
 10
0.126996
 20
-1.236504
  0
SEQEND
  8
0
  0
POLYLINE
  8
LAYER_1
 62
    39
  6
CONTINUOUS
 66
     1
 40
0.004390
 41
0.004390
  0
VERTEX
  8
LAYER_1
 62
    39
  6
CONTINUOUS
 10
-0.623004
 20
-1.336504
  0
VERTEX
  8
LAYER_1
 62
    39
  6
CONTINUOUS
 10
-0.633004
 20
-1.346504
  0
VERTEX
  8
LAYER_1
 62
    39
  6
CONTINUOUS
 10
-0.652004
 20
-1.346504
  0
VERTEX
  8
LAYER_1
 62
    39
  6
CONTINUOUS
 10
-0.662004
 20
-1.336504
  0
VERTEX
  8
LAYER_1
 62
    39
  6
CONTINUOUS
 10
-0.662004
 20
-1.296504
  0
VERTEX
  8
LAYER_1
 62
    39
  6
CONTINUOUS
 10
-0.652004
 20
-1.286504
  0
VERTEX
  8
LAYER_1
 62
    39
  6
CONTINUOUS
 10
-0.633004
 20
-1.286504
  0
VERTEX
  8
LAYER_1
 62
    39
  6
CONTINUOUS
 10
-0.623004
 20
-1.296504
  0
SEQEND
  8
0
  0
POLYLINE
  8
LAYER_1
 62
    39
  6
CONTINUOUS
 66
     1
 40
0.004390
 41
0.004390
  0
VERTEX
  8
LAYER_1
 62
    39
  6
CONTINUOUS
 10
-0.602004
 20
-1.286504
  0
VERTEX
  8
LAYER_1
 62
    39
  6
CONTINUOUS
 10
-0.602004
 20
-1.346504
  0
VERTEX
  8
LAYER_1
 62
    39
  6
CONTINUOUS
 10
-0.602004
 20
-1.286504
  0
VERTEX
  8
LAYER_1
 62
    39
  6
CONTINUOUS
 10
-0.563004
 20
-1.286504
  0
VERTEX
  8
LAYER_1
 62
    39
  6
CONTINUOUS
 10
-0.563004
 20
-1.346504
  0
VERTEX
  8
LAYER_1
 62
    39
  6
CONTINUOUS
 10
-0.602004
 20
-1.346504
  0
VERTEX
  8
LAYER_1
 62
    39
  6
CONTINUOUS
 10
-0.563004
 20
-1.346504
  0
SEQEND
  8
0
  0
POLYLINE
  8
LAYER_1
 62
    39
  6
CONTINUOUS
 66
     1
 40
0.004390
 41
0.004390
  0
VERTEX
  8
LAYER_1
 62
    39
  6
CONTINUOUS
 10
-0.542004
 20
-1.286504
  0
VERTEX
  8
LAYER_1
 62
    39
  6
CONTINUOUS
 10
-0.542004
 20
-1.346504
  0
VERTEX
  8
LAYER_1
 62
    39
  6
CONTINUOUS
 10
-0.542004
 20
-1.286504
  0
VERTEX
  8
LAYER_1
 62
    39
  6
CONTINUOUS
 10
-0.522004
 20
-1.327504
  0
VERTEX
  8
LAYER_1
 62
    39
  6
CONTINUOUS
 10
-0.503004
 20
-1.286504
  0
VERTEX
  8
LAYER_1
 62
    39
  6
CONTINUOUS
 10
-0.503004
 20
-1.346504
  0
SEQEND
  8
0
  0
POLYLINE
  8
LAYER_1
 62
    39
  6
CONTINUOUS
 66
     1
 40
0.004390
 41
0.004390
  0
VERTEX
  8
LAYER_1
 62
    39
  6
CONTINUOUS
 10
-0.483004
 20
-1.286504
  0
VERTEX
  8
LAYER_1
 62
    39
  6
CONTINUOUS
 10
-0.483004
 20
-1.346504
  0
VERTEX
  8
LAYER_1
 62
    39
  6
CONTINUOUS
 10
-0.483004
 20
-1.286504
  0
VERTEX
  8
LAYER_1
 62
    39
  6
CONTINUOUS
 10
-0.452004
 20
-1.286504
  0
VERTEX
  8
LAYER_1
 62
    39
  6
CONTINUOUS
 10
-0.443004
 20
-1.296504
  0
VERTEX
  8
LAYER_1
 62
    39
  6
CONTINUOUS
 10
-0.443004
 20
-1.307504
  0
VERTEX
  8
LAYER_1
 62
    39
  6
CONTINUOUS
 10
-0.452004
 20
-1.317504
  0
VERTEX
  8
LAYER_1
 62
    39
  6
CONTINUOUS
 10
-0.483004
 20
-1.317504
  0
VERTEX
  8
LAYER_1
 62
    39
  6
CONTINUOUS
 10
-0.483004
 20
-1.346504
  0
SEQEND
  8
0
  0
POLYLINE
  8
LAYER_1
 62
    39
  6
CONTINUOUS
 66
     1
 40
0.004390
 41
0.004390
  0
VERTEX
  8
LAYER_1
 62
    39
  6
CONTINUOUS
 10
-0.423004
 20
-1.286504
  0
VERTEX
  8
LAYER_1
 62
    39
  6
CONTINUOUS
 10
-0.423004
 20
-1.346504
  0
VERTEX
  8
LAYER_1
 62
    39
  6
CONTINUOUS
 10
-0.423004
 20
-1.286504
  0
VERTEX
  8
LAYER_1
 62
    39
  6
CONTINUOUS
 10
-0.383004
 20
-1.286504
  0
VERTEX
  8
LAYER_1
 62
    39
  6
CONTINUOUS
 10
-0.383004
 20
-1.346504
  0
VERTEX
  8
LAYER_1
 62
    39
  6
CONTINUOUS
 10
-0.423004
 20
-1.346504
  0
VERTEX
  8
LAYER_1
 62
    39
  6
CONTINUOUS
 10
-0.383004
 20
-1.346504
  0
SEQEND
  8
0
  0
POLYLINE
  8
LAYER_1
 62
    39
  6
CONTINUOUS
 66
     1
 40
0.004390
 41
0.004390
  0
VERTEX
  8
LAYER_1
 62
    39
  6
CONTINUOUS
 10
-0.363004
 20
-1.286504
  0
VERTEX
  8
LAYER_1
 62
    39
  6
CONTINUOUS
 10
-0.363004
 20
-1.346504
  0
VERTEX
  8
LAYER_1
 62
    39
  6
CONTINUOUS
 10
-0.363004
 20
-1.286504
  0
VERTEX
  8
LAYER_1
 62
    39
  6
CONTINUOUS
 10
-0.323004
 20
-1.327504
  0
VERTEX
  8
LAYER_1
 62
    39
  6
CONTINUOUS
 10
-0.323004
 20
-1.286504
  0
VERTEX
  8
LAYER_1
 62
    39
  6
CONTINUOUS
 10
-0.323004
 20
-1.346504
  0
SEQEND
  8
0
  0
POLYLINE
  8
LAYER_1
 62
    39
  6
CONTINUOUS
 66
     1
 40
0.004390
 41
0.004390
  0
VERTEX
  8
LAYER_1
 62
    39
  6
CONTINUOUS
 10
-0.303004
 20
-1.286504
  0
VERTEX
  8
LAYER_1
 62
    39
  6
CONTINUOUS
 10
-0.303004
 20
-1.346504
  0
VERTEX
  8
LAYER_1
 62
    39
  6
CONTINUOUS
 10
-0.303004
 20
-1.286504
  0
VERTEX
  8
LAYER_1
 62
    39
  6
CONTINUOUS
 10
-0.262004
 20
-1.286504
  0
VERTEX
  8
LAYER_1
 62
    39
  6
CONTINUOUS
 10
-0.303004
 20
-1.286504
  0
VERTEX
  8
LAYER_1
 62
    39
  6
CONTINUOUS
 10
-0.303004
 20
-1.317504
  0
VERTEX
  8
LAYER_1
 62
    39
  6
CONTINUOUS
 10
-0.282004
 20
-1.317504
  0
VERTEX
  8
LAYER_1
 62
    39
  6
CONTINUOUS
 10
-0.303004
 20
-1.317504
  0
VERTEX
  8
LAYER_1
 62
    39
  6
CONTINUOUS
 10
-0.303004
 20
-1.346504
  0
VERTEX
  8
LAYER_1
 62
    39
  6
CONTINUOUS
 10
-0.262004
 20
-1.346504
  0
SEQEND
  8
0
  0
POLYLINE
  8
LAYER_1
 62
    39
  6
CONTINUOUS
 66
     1
 40
0.004390
 41
0.004390
  0
VERTEX
  8
LAYER_1
 62
    39
  6
CONTINUOUS
 10
-0.243004
 20
-1.286504
  0
VERTEX
  8
LAYER_1
 62
    39
  6
CONTINUOUS
 10
-0.243004
 20
-1.346504
  0
VERTEX
  8
LAYER_1
 62
    39
  6
CONTINUOUS
 10
-0.243004
 20
-1.286504
  0
VERTEX
  8
LAYER_1
 62
    39
  6
CONTINUOUS
 10
-0.202004
 20
-1.327504
  0
VERTEX
  8
LAYER_1
 62
    39
  6
CONTINUOUS
 10
-0.202004
 20
-1.286504
  0
VERTEX
  8
LAYER_1
 62
    39
  6
CONTINUOUS
 10
-0.202004
 20
-1.346504
  0
SEQEND
  8
0
  0
POLYLINE
  8
LAYER_1
 62
    39
  6
CONTINUOUS
 66
     1
 40
0.004390
 41
0.004390
  0
VERTEX
  8
LAYER_1
 62
    39
  6
CONTINUOUS
 10
-0.142004
 20
-1.286504
  0
VERTEX
  8
LAYER_1
 62
    39
  6
CONTINUOUS
 10
-0.183004
 20
-1.286504
  0
VERTEX
  8
LAYER_1
 62
    39
  6
CONTINUOUS
 10
-0.142004
 20
-1.286504
  0
VERTEX
  8
LAYER_1
 62
    39
  6
CONTINUOUS
 10
-0.162004
 20
-1.286504
  0
VERTEX
  8
LAYER_1
 62
    39
  6
CONTINUOUS
 10
-0.162004
 20
-1.346504
  0
SEQEND
  8
0
  0
POLYLINE
  8
LAYER_1
 62
    39
  6
CONTINUOUS
 66
     1
 40
0.004390
 41
0.004390
  0
VERTEX
  8
LAYER_1
 62
    39
  6
CONTINUOUS
 10
-0.063004
 20
-1.286504
  0
VERTEX
  8
LAYER_1
 62
    39
  6
CONTINUOUS
 10
-0.063004
 20
-1.346504
  0
VERTEX
  8
LAYER_1
 62
    39
  6
CONTINUOUS
 10
-0.063004
 20
-1.286504
  0
VERTEX
  8
LAYER_1
 62
    39
  6
CONTINUOUS
 10
-0.022004
 20
-1.286504
  0
VERTEX
  8
LAYER_1
 62
    39
  6
CONTINUOUS
 10
-0.022004
 20
-1.346504
  0
VERTEX
  8
LAYER_1
 62
    39
  6
CONTINUOUS
 10
-0.063004
 20
-1.346504
  0
VERTEX
  8
LAYER_1
 62
    39
  6
CONTINUOUS
 10
-0.022004
 20
-1.346504
  0
SEQEND
  8
0
  0
POLYLINE
  8
LAYER_1
 62
    39
  6
CONTINUOUS
 66
     1
 40
0.004390
 41
0.004390
  0
VERTEX
  8
LAYER_1
 62
    39
  6
CONTINUOUS
 10
-0.003004
 20
-1.286504
  0
VERTEX
  8
LAYER_1
 62
    39
  6
CONTINUOUS
 10
0.027996
 20
-1.346504
  0
VERTEX
  8
LAYER_1
 62
    39
  6
CONTINUOUS
 10
0.056996
 20
-1.286504
  0
SEQEND
  8
0
  0
POLYLINE
  8
LAYER_1
 62
    39
  6
CONTINUOUS
 66
     1
 40
0.004390
 41
0.004390
  0
VERTEX
  8
LAYER_1
 62
    39
  6
CONTINUOUS
 10
0.076996
 20
-1.286504
  0
VERTEX
  8
LAYER_1
 62
    39
  6
CONTINUOUS
 10
0.076996
 20
-1.346504
  0
VERTEX
  8
LAYER_1
 62
    39
  6
CONTINUOUS
 10
0.076996
 20
-1.286504
  0
VERTEX
  8
LAYER_1
 62
    39
  6
CONTINUOUS
 10
0.116996
 20
-1.286504
  0
VERTEX
  8
LAYER_1
 62
    39
  6
CONTINUOUS
 10
0.076996
 20
-1.286504
  0
VERTEX
  8
LAYER_1
 62
    39
  6
CONTINUOUS
 10
0.076996
 20
-1.317504
  0
VERTEX
  8
LAYER_1
 62
    39
  6
CONTINUOUS
 10
0.097996
 20
-1.317504
  0
VERTEX
  8
LAYER_1
 62
    39
  6
CONTINUOUS
 10
0.076996
 20
-1.317504
  0
VERTEX
  8
LAYER_1
 62
    39
  6
CONTINUOUS
 10
0.076996
 20
-1.346504
  0
VERTEX
  8
LAYER_1
 62
    39
  6
CONTINUOUS
 10
0.116996
 20
-1.346504
  0
SEQEND
  8
0
  0
POLYLINE
  8
LAYER_1
 62
    39
  6
CONTINUOUS
 66
     1
 40
0.004390
 41
0.004390
  0
VERTEX
  8
LAYER_1
 62
    39
  6
CONTINUOUS
 10
0.136996
 20
-1.286504
  0
VERTEX
  8
LAYER_1
 62
    39
  6
CONTINUOUS
 10
0.136996
 20
-1.346504
  0
VERTEX
  8
LAYER_1
 62
    39
  6
CONTINUOUS
 10
0.136996
 20
-1.286504
  0
VERTEX
  8
LAYER_1
 62
    39
  6
CONTINUOUS
 10
0.167996
 20
-1.286504
  0
VERTEX
  8
LAYER_1
 62
    39
  6
CONTINUOUS
 10
0.176996
 20
-1.296504
  0
VERTEX
  8
LAYER_1
 62
    39
  6
CONTINUOUS
 10
0.176996
 20
-1.307504
  0
VERTEX
  8
LAYER_1
 62
    39
  6
CONTINUOUS
 10
0.167996
 20
-1.317504
  0
VERTEX
  8
LAYER_1
 62
    39
  6
CONTINUOUS
 10
0.136996
 20
-1.317504
  0
VERTEX
  8
LAYER_1
 62
    39
  6
CONTINUOUS
 10
0.147996
 20
-1.317504
  0
VERTEX
  8
LAYER_1
 62
    39
  6
CONTINUOUS
 10
0.176996
 20
-1.346504
  0
SEQEND
  8
0
  0
POLYLINE
  8
LAYER_1
 62
    39
  6
CONTINUOUS
 66
     1
 40
0.004390
 41
0.004390
  0
VERTEX
  8
LAYER_1
 62
    39
  6
CONTINUOUS
 10
0.196996
 20
-1.286504
  0
VERTEX
  8
LAYER_1
 62
    39
  6
CONTINUOUS
 10
0.196996
 20
-1.346504
  0
VERTEX
  8
LAYER_1
 62
    39
  6
CONTINUOUS
 10
0.196996
 20
-1.286504
  0
VERTEX
  8
LAYER_1
 62
    39
  6
CONTINUOUS
 10
0.196996
 20
-1.346504
  0
VERTEX
  8
LAYER_1
 62
    39
  6
CONTINUOUS
 10
0.237996
 20
-1.346504
  0
SEQEND
  8
0
  0
POLYLINE
  8
LAYER_1
 62
    39
  6
CONTINUOUS
 66
     1
 40
0.004390
 41
0.004390
  0
VERTEX
  8
LAYER_1
 62
    39
  6
CONTINUOUS
 10
0.256996
 20
-1.327504
  0
VERTEX
  8
LAYER_1
 62
    39
  6
CONTINUOUS
 10
0.256996
 20
-1.346504
  0
VERTEX
  8
LAYER_1
 62
    39
  6
CONTINUOUS
 10
0.256996
 20
-1.327504
  0
VERTEX
  8
LAYER_1
 62
    39
  6
CONTINUOUS
 10
0.277996
 20
-1.286504
  0
VERTEX
  8
LAYER_1
 62
    39
  6
CONTINUOUS
 10
0.297996
 20
-1.327504
  0
VERTEX
  8
LAYER_1
 62
    39
  6
CONTINUOUS
 10
0.256996
 20
-1.327504
  0
VERTEX
  8
LAYER_1
 62
    39
  6
CONTINUOUS
 10
0.297996
 20
-1.327504
  0
VERTEX
  8
LAYER_1
 62
    39
  6
CONTINUOUS
 10
0.297996
 20
-1.346504
  0
SEQEND
  8
0
  0
POLYLINE
  8
LAYER_1
 62
    39
  6
CONTINUOUS
 66
     1
 40
0.004390
 41
0.004390
  0
VERTEX
  8
LAYER_1
 62
    39
  6
CONTINUOUS
 10
0.316996
 20
-1.286504
  0
VERTEX
  8
LAYER_1
 62
    39
  6
CONTINUOUS
 10
0.316996
 20
-1.296504
  0
VERTEX
  8
LAYER_1
 62
    39
  6
CONTINUOUS
 10
0.337996
 20
-1.317504
  0
VERTEX
  8
LAYER_1
 62
    39
  6
CONTINUOUS
 10
0.337996
 20
-1.346504
  0
VERTEX
  8
LAYER_1
 62
    39
  6
CONTINUOUS
 10
0.337996
 20
-1.317504
  0
VERTEX
  8
LAYER_1
 62
    39
  6
CONTINUOUS
 10
0.357996
 20
-1.296504
  0
VERTEX
  8
LAYER_1
 62
    39
  6
CONTINUOUS
 10
0.357996
 20
-1.286504
  0
SEQEND
  8
0
  0
POLYLINE
  8
LAYER_1
 62
    39
  6
CONTINUOUS
 66
     1
 40
0.004390
 41
0.004390
  0
VERTEX
  8
LAYER_1
 62
    39
  6
CONTINUOUS
 10
-0.712004
 20
-1.111504
  0
VERTEX
  8
LAYER_1
 62
    39
  6
CONTINUOUS
 10
-0.712004
 20
-1.051504
  0
VERTEX
  8
LAYER_1
 62
    39
  6
CONTINUOUS
 10
-0.683004
 20
-1.051504
  0
VERTEX
  8
LAYER_1
 62
    39
  6
CONTINUOUS
 10
-0.673004
 20
-1.062504
  0
VERTEX
  8
LAYER_1
 62
    39
  6
CONTINUOUS
 10
-0.673004
 20
-1.072504
  0
VERTEX
  8
LAYER_1
 62
    39
  6
CONTINUOUS
 10
-0.683004
 20
-1.082504
  0
VERTEX
  8
LAYER_1
 62
    39
  6
CONTINUOUS
 10
-0.712004
 20
-1.082504
  0
VERTEX
  8
LAYER_1
 62
    39
  6
CONTINUOUS
 10
-0.702004
 20
-1.082504
  0
VERTEX
  8
LAYER_1
 62
    39
  6
CONTINUOUS
 10
-0.673004
 20
-1.111504
  0
SEQEND
  8
0
  0
POLYLINE
  8
LAYER_1
 62
    39
  6
CONTINUOUS
 66
     1
 40
0.004390
 41
0.004390
  0
VERTEX
  8
LAYER_1
 62
    39
  6
CONTINUOUS
 10
-0.652004
 20
-1.111504
  0
VERTEX
  8
LAYER_1
 62
    39
  6
CONTINUOUS
 10
-0.652004
 20
-1.051504
  0
VERTEX
  8
LAYER_1
 62
    39
  6
CONTINUOUS
 10
-0.613004
 20
-1.051504
  0
VERTEX
  8
LAYER_1
 62
    39
  6
CONTINUOUS
 10
-0.652004
 20
-1.051504
  0
VERTEX
  8
LAYER_1
 62
    39
  6
CONTINUOUS
 10
-0.652004
 20
-1.082504
  0
VERTEX
  8
LAYER_1
 62
    39
  6
CONTINUOUS
 10
-0.633004
 20
-1.082504
  0
VERTEX
  8
LAYER_1
 62
    39
  6
CONTINUOUS
 10
-0.652004
 20
-1.082504
  0
VERTEX
  8
LAYER_1
 62
    39
  6
CONTINUOUS
 10
-0.652004
 20
-1.111504
  0
VERTEX
  8
LAYER_1
 62
    39
  6
CONTINUOUS
 10
-0.613004
 20
-1.111504
  0
SEQEND
  8
0
  0
POLYLINE
  8
LAYER_1
 62
    39
  6
CONTINUOUS
 66
     1
 40
0.004390
 41
0.004390
  0
VERTEX
  8
LAYER_1
 62
    39
  6
CONTINUOUS
 10
-0.553004
 20
-1.101504
  0
VERTEX
  8
LAYER_1
 62
    39
  6
CONTINUOUS
 10
-0.563004
 20
-1.111504
  0
VERTEX
  8
LAYER_1
 62
    39
  6
CONTINUOUS
 10
-0.582004
 20
-1.111504
  0
VERTEX
  8
LAYER_1
 62
    39
  6
CONTINUOUS
 10
-0.592004
 20
-1.101504
  0
VERTEX
  8
LAYER_1
 62
    39
  6
CONTINUOUS
 10
-0.592004
 20
-1.062504
  0
VERTEX
  8
LAYER_1
 62
    39
  6
CONTINUOUS
 10
-0.582004
 20
-1.051504
  0
VERTEX
  8
LAYER_1
 62
    39
  6
CONTINUOUS
 10
-0.563004
 20
-1.051504
  0
VERTEX
  8
LAYER_1
 62
    39
  6
CONTINUOUS
 10
-0.553004
 20
-1.062504
  0
SEQEND
  8
0
  0
POLYLINE
  8
LAYER_1
 62
    39
  6
CONTINUOUS
 66
     1
 40
0.004390
 41
0.004390
  0
VERTEX
  8
LAYER_1
 62
    39
  6
CONTINUOUS
 10
-0.532004
 20
-1.111504
  0
VERTEX
  8
LAYER_1
 62
    39
  6
CONTINUOUS
 10
-0.532004
 20
-1.051504
  0
VERTEX
  8
LAYER_1
 62
    39
  6
CONTINUOUS
 10
-0.493004
 20
-1.051504
  0
VERTEX
  8
LAYER_1
 62
    39
  6
CONTINUOUS
 10
-0.532004
 20
-1.051504
  0
VERTEX
  8
LAYER_1
 62
    39
  6
CONTINUOUS
 10
-0.532004
 20
-1.082504
  0
VERTEX
  8
LAYER_1
 62
    39
  6
CONTINUOUS
 10
-0.512004
 20
-1.082504
  0
VERTEX
  8
LAYER_1
 62
    39
  6
CONTINUOUS
 10
-0.532004
 20
-1.082504
  0
VERTEX
  8
LAYER_1
 62
    39
  6
CONTINUOUS
 10
-0.532004
 20
-1.111504
  0
VERTEX
  8
LAYER_1
 62
    39
  6
CONTINUOUS
 10
-0.493004
 20
-1.111504
  0
SEQEND
  8
0
  0
POLYLINE
  8
LAYER_1
 62
    39
  6
CONTINUOUS
 66
     1
 40
0.004390
 41
0.004390
  0
VERTEX
  8
LAYER_1
 62
    39
  6
CONTINUOUS
 10
-0.462004
 20
-1.111504
  0
VERTEX
  8
LAYER_1
 62
    39
  6
CONTINUOUS
 10
-0.472004
 20
-1.111504
  0
VERTEX
  8
LAYER_1
 62
    39
  6
CONTINUOUS
 10
-0.462004
 20
-1.111504
  0
VERTEX
  8
LAYER_1
 62
    39
  6
CONTINUOUS
 10
-0.462004
 20
-1.051504
  0
VERTEX
  8
LAYER_1
 62
    39
  6
CONTINUOUS
 10
-0.472004
 20
-1.051504
  0
VERTEX
  8
LAYER_1
 62
    39
  6
CONTINUOUS
 10
-0.452004
 20
-1.051504
  0
VERTEX
  8
LAYER_1
 62
    39
  6
CONTINUOUS
 10
-0.462004
 20
-1.051504
  0
VERTEX
  8
LAYER_1
 62
    39
  6
CONTINUOUS
 10
-0.462004
 20
-1.111504
  0
VERTEX
  8
LAYER_1
 62
    39
  6
CONTINUOUS
 10
-0.452004
 20
-1.111504
  0
SEQEND
  8
0
  0
POLYLINE
  8
LAYER_1
 62
    39
  6
CONTINUOUS
 66
     1
 40
0.004390
 41
0.004390
  0
VERTEX
  8
LAYER_1
 62
    39
  6
CONTINUOUS
 10
-0.402004
 20
-1.111504
  0
VERTEX
  8
LAYER_1
 62
    39
  6
CONTINUOUS
 10
-0.433004
 20
-1.051504
  0
VERTEX
  8
LAYER_1
 62
    39
  6
CONTINUOUS
 10
-0.402004
 20
-1.111504
  0
VERTEX
  8
LAYER_1
 62
    39
  6
CONTINUOUS
 10
-0.373004
 20
-1.051504
  0
SEQEND
  8
0
  0
POLYLINE
  8
LAYER_1
 62
    39
  6
CONTINUOUS
 66
     1
 40
0.004390
 41
0.004390
  0
VERTEX
  8
LAYER_1
 62
    39
  6
CONTINUOUS
 10
-0.352004
 20
-1.111504
  0
VERTEX
  8
LAYER_1
 62
    39
  6
CONTINUOUS
 10
-0.352004
 20
-1.051504
  0
VERTEX
  8
LAYER_1
 62
    39
  6
CONTINUOUS
 10
-0.313004
 20
-1.051504
  0
VERTEX
  8
LAYER_1
 62
    39
  6
CONTINUOUS
 10
-0.352004
 20
-1.051504
  0
VERTEX
  8
LAYER_1
 62
    39
  6
CONTINUOUS
 10
-0.352004
 20
-1.082504
  0
VERTEX
  8
LAYER_1
 62
    39
  6
CONTINUOUS
 10
-0.332004
 20
-1.082504
  0
VERTEX
  8
LAYER_1
 62
    39
  6
CONTINUOUS
 10
-0.352004
 20
-1.082504
  0
VERTEX
  8
LAYER_1
 62
    39
  6
CONTINUOUS
 10
-0.352004
 20
-1.111504
  0
VERTEX
  8
LAYER_1
 62
    39
  6
CONTINUOUS
 10
-0.313004
 20
-1.111504
  0
SEQEND
  8
0
  0
POLYLINE
  8
LAYER_1
 62
    39
  6
CONTINUOUS
 66
     1
 40
0.004390
 41
0.004390
  0
VERTEX
  8
LAYER_1
 62
    39
  6
CONTINUOUS
 10
-0.292004
 20
-1.111504
  0
VERTEX
  8
LAYER_1
 62
    39
  6
CONTINUOUS
 10
-0.292004
 20
-1.051504
  0
VERTEX
  8
LAYER_1
 62
    39
  6
CONTINUOUS
 10
-0.262004
 20
-1.051504
  0
VERTEX
  8
LAYER_1
 62
    39
  6
CONTINUOUS
 10
-0.253004
 20
-1.062504
  0
VERTEX
  8
LAYER_1
 62
    39
  6
CONTINUOUS
 10
-0.253004
 20
-1.072504
  0
VERTEX
  8
LAYER_1
 62
    39
  6
CONTINUOUS
 10
-0.262004
 20
-1.082504
  0
VERTEX
  8
LAYER_1
 62
    39
  6
CONTINUOUS
 10
-0.292004
 20
-1.082504
  0
VERTEX
  8
LAYER_1
 62
    39
  6
CONTINUOUS
 10
-0.282004
 20
-1.082504
  0
VERTEX
  8
LAYER_1
 62
    39
  6
CONTINUOUS
 10
-0.253004
 20
-1.111504
  0
SEQEND
  8
0
  0
POLYLINE
  8
LAYER_1
 62
    39
  6
CONTINUOUS
 66
     1
 40
0.004390
 41
0.004390
  0
VERTEX
  8
LAYER_1
 62
    39
  6
CONTINUOUS
 10
-0.133004
 20
-1.051504
  0
VERTEX
  8
LAYER_1
 62
    39
  6
CONTINUOUS
 10
-0.173004
 20
-1.051504
  0
VERTEX
  8
LAYER_1
 62
    39
  6
CONTINUOUS
 10
-0.133004
 20
-1.051504
  0
VERTEX
  8
LAYER_1
 62
    39
  6
CONTINUOUS
 10
-0.152004
 20
-1.051504
  0
VERTEX
  8
LAYER_1
 62
    39
  6
CONTINUOUS
 10
-0.152004
 20
-1.111504
  0
SEQEND
  8
0
  0
POLYLINE
  8
LAYER_1
 62
    39
  6
CONTINUOUS
 66
     1
 40
0.004390
 41
0.004390
  0
VERTEX
  8
LAYER_1
 62
    39
  6
CONTINUOUS
 10
-0.113004
 20
-1.111504
  0
VERTEX
  8
LAYER_1
 62
    39
  6
CONTINUOUS
 10
-0.113004
 20
-1.051504
  0
SEQEND
  8
0
  0
POLYLINE
  8
LAYER_1
 62
    39
  6
CONTINUOUS
 66
     1
 40
0.004390
 41
0.004390
  0
VERTEX
  8
LAYER_1
 62
    39
  6
CONTINUOUS
 10
-0.073004
 20
-1.082504
  0
VERTEX
  8
LAYER_1
 62
    39
  6
CONTINUOUS
 10
-0.073004
 20
-1.051504
  0
VERTEX
  8
LAYER_1
 62
    39
  6
CONTINUOUS
 10
-0.073004
 20
-1.082504
  0
VERTEX
  8
LAYER_1
 62
    39
  6
CONTINUOUS
 10
-0.113004
 20
-1.082504
  0
VERTEX
  8
LAYER_1
 62
    39
  6
CONTINUOUS
 10
-0.073004
 20
-1.082504
  0
VERTEX
  8
LAYER_1
 62
    39
  6
CONTINUOUS
 10
-0.073004
 20
-1.111504
  0
SEQEND
  8
0
  0
POLYLINE
  8
LAYER_1
 62
    39
  6
CONTINUOUS
 66
     1
 40
0.004390
 41
0.004390
  0
VERTEX
  8
LAYER_1
 62
    39
  6
CONTINUOUS
 10
-0.042004
 20
-1.111504
  0
VERTEX
  8
LAYER_1
 62
    39
  6
CONTINUOUS
 10
-0.053004
 20
-1.111504
  0
VERTEX
  8
LAYER_1
 62
    39
  6
CONTINUOUS
 10
-0.042004
 20
-1.111504
  0
VERTEX
  8
LAYER_1
 62
    39
  6
CONTINUOUS
 10
-0.042004
 20
-1.051504
  0
VERTEX
  8
LAYER_1
 62
    39
  6
CONTINUOUS
 10
-0.053004
 20
-1.051504
  0
VERTEX
  8
LAYER_1
 62
    39
  6
CONTINUOUS
 10
-0.032004
 20
-1.051504
  0
VERTEX
  8
LAYER_1
 62
    39
  6
CONTINUOUS
 10
-0.042004
 20
-1.051504
  0
VERTEX
  8
LAYER_1
 62
    39
  6
CONTINUOUS
 10
-0.042004
 20
-1.111504
  0
VERTEX
  8
LAYER_1
 62
    39
  6
CONTINUOUS
 10
-0.032004
 20
-1.111504
  0
SEQEND
  8
0
  0
POLYLINE
  8
LAYER_1
 62
    39
  6
CONTINUOUS
 66
     1
 40
0.004390
 41
0.004390
  0
VERTEX
  8
LAYER_1
 62
    39
  6
CONTINUOUS
 10
-0.012004
 20
-1.111504
  0
VERTEX
  8
LAYER_1
 62
    39
  6
CONTINUOUS
 10
-0.012004
 20
-1.051504
  0
VERTEX
  8
LAYER_1
 62
    39
  6
CONTINUOUS
 10
0.016996
 20
-1.051504
  0
VERTEX
  8
LAYER_1
 62
    39
  6
CONTINUOUS
 10
0.027996
 20
-1.062504
  0
VERTEX
  8
LAYER_1
 62
    39
  6
CONTINUOUS
 10
0.027996
 20
-1.072504
  0
VERTEX
  8
LAYER_1
 62
    39
  6
CONTINUOUS
 10
0.016996
 20
-1.082504
  0
VERTEX
  8
LAYER_1
 62
    39
  6
CONTINUOUS
 10
-0.012004
 20
-1.082504
  0
VERTEX
  8
LAYER_1
 62
    39
  6
CONTINUOUS
 10
-0.003004
 20
-1.082504
  0
VERTEX
  8
LAYER_1
 62
    39
  6
CONTINUOUS
 10
0.027996
 20
-1.111504
  0
SEQEND
  8
0
  0
POLYLINE
  8
LAYER_1
 62
    39
  6
CONTINUOUS
 66
     1
 40
0.004390
 41
0.004390
  0
VERTEX
  8
LAYER_1
 62
    39
  6
CONTINUOUS
 10
0.076996
 20
-1.111504
  0
VERTEX
  8
LAYER_1
 62
    39
  6
CONTINUOUS
 10
0.047996
 20
-1.111504
  0
VERTEX
  8
LAYER_1
 62
    39
  6
CONTINUOUS
 10
0.076996
 20
-1.111504
  0
VERTEX
  8
LAYER_1
 62
    39
  6
CONTINUOUS
 10
0.087996
 20
-1.101504
  0
VERTEX
  8
LAYER_1
 62
    39
  6
CONTINUOUS
 10
0.087996
 20
-1.062504
  0
VERTEX
  8
LAYER_1
 62
    39
  6
CONTINUOUS
 10
0.076996
 20
-1.051504
  0
VERTEX
  8
LAYER_1
 62
    39
  6
CONTINUOUS
 10
0.047996
 20
-1.051504
  0
VERTEX
  8
LAYER_1
 62
    39
  6
CONTINUOUS
 10
0.056996
 20
-1.051504
  0
VERTEX
  8
LAYER_1
 62
    39
  6
CONTINUOUS
 10
0.056996
 20
-1.111504
  0
SEQEND
  8
0
  0
POLYLINE
  8
LAYER_1
 62
    39
  6
CONTINUOUS
 66
     1
 40
0.004390
 41
0.004390
  0
VERTEX
  8
LAYER_1
 62
    39
  6
CONTINUOUS
 10
0.167996
 20
-1.111504
  0
VERTEX
  8
LAYER_1
 62
    39
  6
CONTINUOUS
 10
0.167996
 20
-1.051504
  0
VERTEX
  8
LAYER_1
 62
    39
  6
CONTINUOUS
 10
0.186996
 20
-1.091504
  0
VERTEX
  8
LAYER_1
 62
    39
  6
CONTINUOUS
 10
0.207996
 20
-1.051504
  0
VERTEX
  8
LAYER_1
 62
    39
  6
CONTINUOUS
 10
0.207996
 20
-1.111504
  0
SEQEND
  8
0
  0
POLYLINE
  8
LAYER_1
 62
    39
  6
CONTINUOUS
 66
     1
 40
0.004390
 41
0.004390
  0
VERTEX
  8
LAYER_1
 62
    39
  6
CONTINUOUS
 10
0.237996
 20
-1.111504
  0
VERTEX
  8
LAYER_1
 62
    39
  6
CONTINUOUS
 10
0.227996
 20
-1.111504
  0
VERTEX
  8
LAYER_1
 62
    39
  6
CONTINUOUS
 10
0.237996
 20
-1.111504
  0
VERTEX
  8
LAYER_1
 62
    39
  6
CONTINUOUS
 10
0.237996
 20
-1.051504
  0
VERTEX
  8
LAYER_1
 62
    39
  6
CONTINUOUS
 10
0.227996
 20
-1.051504
  0
VERTEX
  8
LAYER_1
 62
    39
  6
CONTINUOUS
 10
0.246996
 20
-1.051504
  0
VERTEX
  8
LAYER_1
 62
    39
  6
CONTINUOUS
 10
0.237996
 20
-1.051504
  0
VERTEX
  8
LAYER_1
 62
    39
  6
CONTINUOUS
 10
0.237996
 20
-1.111504
  0
VERTEX
  8
LAYER_1
 62
    39
  6
CONTINUOUS
 10
0.246996
 20
-1.111504
  0
SEQEND
  8
0
  0
POLYLINE
  8
LAYER_1
 62
    39
  6
CONTINUOUS
 66
     1
 40
0.004390
 41
0.004390
  0
VERTEX
  8
LAYER_1
 62
    39
  6
CONTINUOUS
 10
0.266996
 20
-1.111504
  0
VERTEX
  8
LAYER_1
 62
    39
  6
CONTINUOUS
 10
0.266996
 20
-1.101504
  0
VERTEX
  8
LAYER_1
 62
    39
  6
CONTINUOUS
 10
0.306996
 20
-1.062504
  0
VERTEX
  8
LAYER_1
 62
    39
  6
CONTINUOUS
 10
0.306996
 20
-1.051504
  0
SEQEND
  8
0
  0
POLYLINE
  8
LAYER_1
 62
    39
  6
CONTINUOUS
 66
     1
 40
0.004390
 41
0.004390
  0
VERTEX
  8
LAYER_1
 62
    39
  6
CONTINUOUS
 10
0.266996
 20
-1.062504
  0
VERTEX
  8
LAYER_1
 62
    39
  6
CONTINUOUS
 10
0.266996
 20
-1.051504
  0
VERTEX
  8
LAYER_1
 62
    39
  6
CONTINUOUS
 10
0.266996
 20
-1.062504
  0
VERTEX
  8
LAYER_1
 62
    39
  6
CONTINUOUS
 10
0.306996
 20
-1.101504
  0
VERTEX
  8
LAYER_1
 62
    39
  6
CONTINUOUS
 10
0.306996
 20
-1.111504
  0
SEQEND
  8
0
  0
POLYLINE
  8
LAYER_1
 62
    39
  6
CONTINUOUS
 66
     1
 40
0.004390
 41
0.004390
  0
VERTEX
  8
LAYER_1
 62
    39
  6
CONTINUOUS
 10
0.326996
 20
-1.111504
  0
VERTEX
  8
LAYER_1
 62
    39
  6
CONTINUOUS
 10
0.326996
 20
-1.051504
  0
VERTEX
  8
LAYER_1
 62
    39
  6
CONTINUOUS
 10
0.366996
 20
-1.051504
  0
VERTEX
  8
LAYER_1
 62
    39
  6
CONTINUOUS
 10
0.326996
 20
-1.051504
  0
VERTEX
  8
LAYER_1
 62
    39
  6
CONTINUOUS
 10
0.326996
 20
-1.082504
  0
VERTEX
  8
LAYER_1
 62
    39
  6
CONTINUOUS
 10
0.347996
 20
-1.082504
  0
VERTEX
  8
LAYER_1
 62
    39
  6
CONTINUOUS
 10
0.326996
 20
-1.082504
  0
VERTEX
  8
LAYER_1
 62
    39
  6
CONTINUOUS
 10
0.326996
 20
-1.111504
  0
VERTEX
  8
LAYER_1
 62
    39
  6
CONTINUOUS
 10
0.366996
 20
-1.111504
  0
SEQEND
  8
0
  0
POLYLINE
  8
LAYER_1
 62
    39
  6
CONTINUOUS
 66
     1
 40
0.004390
 41
0.004390
  0
VERTEX
  8
LAYER_1
 62
    39
  6
CONTINUOUS
 10
0.386996
 20
-1.111504
  0
VERTEX
  8
LAYER_1
 62
    39
  6
CONTINUOUS
 10
0.386996
 20
-1.051504
  0
VERTEX
  8
LAYER_1
 62
    39
  6
CONTINUOUS
 10
0.417996
 20
-1.051504
  0
VERTEX
  8
LAYER_1
 62
    39
  6
CONTINUOUS
 10
0.426996
 20
-1.062504
  0
VERTEX
  8
LAYER_1
 62
    39
  6
CONTINUOUS
 10
0.426996
 20
-1.072504
  0
VERTEX
  8
LAYER_1
 62
    39
  6
CONTINUOUS
 10
0.417996
 20
-1.082504
  0
VERTEX
  8
LAYER_1
 62
    39
  6
CONTINUOUS
 10
0.386996
 20
-1.082504
  0
VERTEX
  8
LAYER_1
 62
    39
  6
CONTINUOUS
 10
0.397996
 20
-1.082504
  0
VERTEX
  8
LAYER_1
 62
    39
  6
CONTINUOUS
 10
0.426996
 20
-1.111504
  0
SEQEND
  8
0
  0
POLYLINE
  8
LAYER_1
 62
    39
  6
CONTINUOUS
 66
     1
 40
0.004390
 41
0.004390
  0
VERTEX
  8
LAYER_1
 62
    39
  6
CONTINUOUS
 10
-0.417004
 20
-0.147504
  0
VERTEX
  8
LAYER_1
 62
    39
  6
CONTINUOUS
 10
-0.417004
 20
-0.106504
  0
VERTEX
  8
LAYER_1
 62
    39
  6
CONTINUOUS
 10
-0.417004
 20
-0.127504
  0
VERTEX
  8
LAYER_1
 62
    39
  6
CONTINUOUS
 10
-0.358004
 20
-0.127504
  0
SEQEND
  8
0
  0
POLYLINE
  8
LAYER_1
 62
    39
  6
CONTINUOUS
 66
     1
 40
0.004390
 41
0.004390
  0
VERTEX
  8
LAYER_1
 62
    39
  6
CONTINUOUS
 10
-0.407004
 20
-0.086504
  0
VERTEX
  8
LAYER_1
 62
    39
  6
CONTINUOUS
 10
-0.417004
 20
-0.077504
  0
VERTEX
  8
LAYER_1
 62
    39
  6
CONTINUOUS
 10
-0.358004
 20
-0.077504
  0
VERTEX
  8
LAYER_1
 62
    39
  6
CONTINUOUS
 10
-0.358004
 20
-0.086504
  0
VERTEX
  8
LAYER_1
 62
    39
  6
CONTINUOUS
 10
-0.358004
 20
-0.067504
  0
SEQEND
  8
0
  0
POLYLINE
  8
LAYER_1
 62
    39
  6
CONTINUOUS
 66
     1
 40
0.004390
 41
0.004390
  0
VERTEX
  8
LAYER_1
 62
    39
  6
CONTINUOUS
 10
-0.417004
 20
-0.046504
  0
VERTEX
  8
LAYER_1
 62
    39
  6
CONTINUOUS
 10
-0.417004
 20
-0.007504
  0
VERTEX
  8
LAYER_1
 62
    39
  6
CONTINUOUS
 10
-0.407004
 20
-0.007504
  0
VERTEX
  8
LAYER_1
 62
    39
  6
CONTINUOUS
 10
-0.368004
 20
-0.046504
  0
VERTEX
  8
LAYER_1
 62
    39
  6
CONTINUOUS
 10
-0.358004
 20
-0.046504
  0
SEQEND
  8
0
  0
ENDSEC
  0
EOF
